ISO-10303-21;
HEADER;
/* Generated by software containing ST-Developer
 * from STEP Tools, Inc. (www.steptools.com) 
 */

FILE_DESCRIPTION(
/* description */ (''),
/* implementation_level */ '2;1');

FILE_NAME(
/* name */ 
'C:\\Users\\mitarbeiter\\Desktop\\3D\\Imported Components\\OE126003\\O
E126003.stp',
/* time_stamp */ '2016-10-07T10:02:35+02:00',
/* author */ ('mitarbeiter'),
/* organization */ (''),
/* preprocessor_version */ 'ST-DEVELOPER v15.2',
/* originating_system */ 'Autodesk Inventor 2014',
/* authorisation */ '');

FILE_SCHEMA (('AUTOMOTIVE_DESIGN { 1 0 10303 214 3 1 1 }'));
ENDSEC;

DATA;
#10=ITEM_DEFINED_TRANSFORMATION($,$,#98,#114);
#11=ITEM_DEFINED_TRANSFORMATION($,$,#108,#115);
#12=(
REPRESENTATION_RELATIONSHIP($,$,#231,#233)
REPRESENTATION_RELATIONSHIP_WITH_TRANSFORMATION(#10)
SHAPE_REPRESENTATION_RELATIONSHIP()
);
#13=(
REPRESENTATION_RELATIONSHIP($,$,#232,#233)
REPRESENTATION_RELATIONSHIP_WITH_TRANSFORMATION(#11)
SHAPE_REPRESENTATION_RELATIONSHIP()
);
#14=CONTEXT_DEPENDENT_SHAPE_REPRESENTATION(#12,#229);
#15=CONTEXT_DEPENDENT_SHAPE_REPRESENTATION(#13,#230);
#16=NEXT_ASSEMBLY_USAGE_OCCURRENCE('Geh\X\E4use_OS126001:1',$,$,#237,#235,
$);
#17=NEXT_ASSEMBLY_USAGE_OCCURRENCE('Leitung_OS126001:1',$,$,#237,#236,$);
#18=B_SPLINE_CURVE_WITH_KNOTS($,3,(#169,#170,#171,#172,#173,#174,#175,#176,
#177,#178,#179,#180,#181,#182,#183,#184,#185,#186,#187,#188,#189,#190,#191,
#192,#193,#194,#195,#196,#197,#198,#199,#200,#201,#202,#203),
 .UNSPECIFIED.,.T.,.F.,(4,2,2,2,2,2,2,2,2,2,2,2,3,2,2,2,4),(-1.02401728438588,
-0.93875252436822,-0.853487764350557,-0.768137131592356,-0.682786498834154,
-0.597435866075952,-0.512085233317751,-0.426820473300089,-0.341555713282426,
-0.256149102814064,-0.170742492345701,-0.0853712461728506,0.,0.0853712461728506,
0.170742492345701,0.256149102814064,0.341555713282426),.UNSPECIFIED.);
#19=SHAPE_REPRESENTATION_RELATIONSHIP('SRR','None',#231,#21);
#20=SHAPE_REPRESENTATION_RELATIONSHIP('SRR','None',#232,#22);
#21=ADVANCED_BREP_SHAPE_REPRESENTATION($,(#96),#214);
#22=ADVANCED_BREP_SHAPE_REPRESENTATION($,(#97),#215);
#23=STYLED_ITEM($,(#248),#96);
#24=STYLED_ITEM($,(#249),#97);
#25=PLANE($,#106);
#26=PLANE($,#107);
#27=PLANE($,#112);
#28=CONICAL_SURFACE($,#102,5.5,45.0000000000002);
#29=FACE_BOUND($,#42,.T.);
#30=FACE_BOUND($,#44,.T.);
#31=FACE_BOUND($,#46,.T.);
#32=FACE_BOUND($,#51,.T.);
#33=FACE_OUTER_BOUND($,#41,.T.);
#34=FACE_OUTER_BOUND($,#43,.T.);
#35=FACE_OUTER_BOUND($,#45,.T.);
#36=FACE_OUTER_BOUND($,#47,.T.);
#37=FACE_OUTER_BOUND($,#48,.T.);
#38=FACE_OUTER_BOUND($,#49,.T.);
#39=FACE_OUTER_BOUND($,#50,.T.);
#40=FACE_OUTER_BOUND($,#52,.T.);
#41=EDGE_LOOP($,(#70));
#42=EDGE_LOOP($,(#71));
#43=EDGE_LOOP($,(#72));
#44=EDGE_LOOP($,(#73));
#45=EDGE_LOOP($,(#74));
#46=EDGE_LOOP($,(#75));
#47=EDGE_LOOP($,(#76));
#48=EDGE_LOOP($,(#77));
#49=EDGE_LOOP($,(#78));
#50=EDGE_LOOP($,(#79));
#51=EDGE_LOOP($,(#80));
#52=EDGE_LOOP($,(#81));
#53=CIRCLE($,#100,6.);
#54=CIRCLE($,#101,6.);
#55=CIRCLE($,#103,5.);
#56=CIRCLE($,#105,5.);
#57=CIRCLE($,#111,2.25);
#58=VERTEX_POINT($,#154);
#59=VERTEX_POINT($,#156);
#60=VERTEX_POINT($,#159);
#61=VERTEX_POINT($,#162);
#62=VERTEX_POINT($,#168);
#63=VERTEX_POINT($,#205);
#64=EDGE_CURVE($,#58,#58,#53,.T.);
#65=EDGE_CURVE($,#59,#59,#54,.T.);
#66=EDGE_CURVE($,#60,#60,#55,.T.);
#67=EDGE_CURVE($,#61,#61,#56,.T.);
#68=EDGE_CURVE($,#62,#62,#18,.T.);
#69=EDGE_CURVE($,#63,#63,#57,.T.);
#70=ORIENTED_EDGE($,*,*,#64,.F.);
#71=ORIENTED_EDGE($,*,*,#65,.T.);
#72=ORIENTED_EDGE($,*,*,#66,.F.);
#73=ORIENTED_EDGE($,*,*,#64,.T.);
#74=ORIENTED_EDGE($,*,*,#67,.F.);
#75=ORIENTED_EDGE($,*,*,#66,.T.);
#76=ORIENTED_EDGE($,*,*,#67,.T.);
#77=ORIENTED_EDGE($,*,*,#65,.F.);
#78=ORIENTED_EDGE($,*,*,#68,.F.);
#79=ORIENTED_EDGE($,*,*,#68,.T.);
#80=ORIENTED_EDGE($,*,*,#69,.T.);
#81=ORIENTED_EDGE($,*,*,#69,.F.);
#82=CYLINDRICAL_SURFACE($,#99,6.);
#83=CYLINDRICAL_SURFACE($,#104,5.);
#84=CYLINDRICAL_SURFACE($,#109,7.36263751993808);
#85=CYLINDRICAL_SURFACE($,#110,2.25);
#86=ADVANCED_FACE($,(#33,#29),#82,.T.);
#87=ADVANCED_FACE($,(#34,#30),#28,.T.);
#88=ADVANCED_FACE($,(#35,#31),#83,.T.);
#89=ADVANCED_FACE($,(#36),#25,.T.);
#90=ADVANCED_FACE($,(#37),#26,.T.);
#91=ADVANCED_FACE($,(#38),#84,.T.);
#92=ADVANCED_FACE($,(#39,#32),#85,.T.);
#93=ADVANCED_FACE($,(#40),#27,.T.);
#94=CLOSED_SHELL($,(#86,#87,#88,#89,#90));
#95=CLOSED_SHELL($,(#91,#92,#93));
#96=MANIFOLD_SOLID_BREP('Volumenk\X\F6rper1',#94);
#97=MANIFOLD_SOLID_BREP('Volumenk\X\F6rper1',#95);
#98=AXIS2_PLACEMENT_3D('placement',#152,#116,#117);
#99=AXIS2_PLACEMENT_3D($,#153,#118,#119);
#100=AXIS2_PLACEMENT_3D($,#155,#120,#121);
#101=AXIS2_PLACEMENT_3D($,#157,#122,#123);
#102=AXIS2_PLACEMENT_3D($,#158,#124,#125);
#103=AXIS2_PLACEMENT_3D($,#160,#126,#127);
#104=AXIS2_PLACEMENT_3D($,#161,#128,#129);
#105=AXIS2_PLACEMENT_3D($,#163,#130,#131);
#106=AXIS2_PLACEMENT_3D($,#164,#132,#133);
#107=AXIS2_PLACEMENT_3D($,#165,#134,#135);
#108=AXIS2_PLACEMENT_3D('placement',#166,#136,#137);
#109=AXIS2_PLACEMENT_3D($,#167,#138,#139);
#110=AXIS2_PLACEMENT_3D($,#204,#140,#141);
#111=AXIS2_PLACEMENT_3D($,#206,#142,#143);
#112=AXIS2_PLACEMENT_3D($,#207,#144,#145);
#113=AXIS2_PLACEMENT_3D('placement',#208,#146,#147);
#114=AXIS2_PLACEMENT_3D($,#209,#148,#149);
#115=AXIS2_PLACEMENT_3D($,#210,#150,#151);
#116=DIRECTION('axis',(0.,0.,1.));
#117=DIRECTION('refdir',(1.,0.,0.));
#118=DIRECTION('center_axis',(1.,1.83691E-016,0.));
#119=DIRECTION('ref_axis',(-1.83691E-016,1.,0.));
#120=DIRECTION('center_axis',(1.,0.,0.));
#121=DIRECTION('ref_axis',(0.,1.,0.));
#122=DIRECTION('center_axis',(1.,0.,0.));
#123=DIRECTION('ref_axis',(0.,1.,0.));
#124=DIRECTION('center_axis',(-1.,-1.83691E-016,0.));
#125=DIRECTION('ref_axis',(-1.83691E-016,1.,0.));
#126=DIRECTION('center_axis',(1.,0.,0.));
#127=DIRECTION('ref_axis',(0.,1.,0.));
#128=DIRECTION('center_axis',(1.,1.83691E-016,0.));
#129=DIRECTION('ref_axis',(-1.83691E-016,1.,0.));
#130=DIRECTION('center_axis',(1.,0.,0.));
#131=DIRECTION('ref_axis',(0.,1.,0.));
#132=DIRECTION('center_axis',(1.,0.,0.));
#133=DIRECTION('ref_axis',(0.,0.,-1.));
#134=DIRECTION('center_axis',(-1.,0.,0.));
#135=DIRECTION('ref_axis',(0.,0.,1.));
#136=DIRECTION('axis',(0.,0.,1.));
#137=DIRECTION('refdir',(1.,0.,0.));
#138=DIRECTION('center_axis',(0.,-1.,0.));
#139=DIRECTION('ref_axis',(-0.87608338447806,0.,-0.482159624441395));
#140=DIRECTION('center_axis',(1.,-9.38648E-017,0.));
#141=DIRECTION('ref_axis',(9.38648E-017,1.,0.));
#142=DIRECTION('center_axis',(1.,0.,0.));
#143=DIRECTION('ref_axis',(0.,1.,0.));
#144=DIRECTION('center_axis',(-1.,0.,0.));
#145=DIRECTION('ref_axis',(0.,0.,1.));
#146=DIRECTION('axis',(0.,0.,1.));
#147=DIRECTION('refdir',(1.,0.,0.));
#148=DIRECTION($,(0.,0.,1.));
#149=DIRECTION($,(1.,0.,0.));
#150=DIRECTION($,(0.,0.,1.));
#151=DIRECTION($,(1.,0.,0.));
#152=CARTESIAN_POINT('',(0.,0.,0.));
#153=CARTESIAN_POINT('Origin',(12.5,2.296137E-015,0.));
#154=CARTESIAN_POINT('',(25.,6.00000000000001,0.));
#155=CARTESIAN_POINT('Origin',(25.,4.592274E-015,0.));
#156=CARTESIAN_POINT('',(0.,6.,0.));
#157=CARTESIAN_POINT('Origin',(1.102146E-015,2.024542E-031,0.));
#158=CARTESIAN_POINT('Origin',(25.5,4.684119E-015,0.));
#159=CARTESIAN_POINT('',(26.,5.00000000000001,0.));
#160=CARTESIAN_POINT('Origin',(26.,4.775965E-015,0.));
#161=CARTESIAN_POINT('Origin',(35.5,6.521029E-015,0.));
#162=CARTESIAN_POINT('',(45.,5.00000000000001,0.));
#163=CARTESIAN_POINT('Origin',(45.,8.266093E-015,0.));
#164=CARTESIAN_POINT('Origin',(45.,2.50000000000001,0.));
#165=CARTESIAN_POINT('Origin',(0.,3.,0.));
#166=CARTESIAN_POINT('',(0.,0.,0.));
#167=CARTESIAN_POINT('Origin',(-1.45028439715251,2.25,-0.04996654151147));
#168=CARTESIAN_POINT('',(5.9121835718596,2.25,8.194573E-016));
#169=CARTESIAN_POINT('Ctrl Pts',(5.9121835718596,2.25,2.22044604925031E-016));
#170=CARTESIAN_POINT('Ctrl Pts',(5.91411240291566,2.25,-0.284209321643939));
#171=CARTESIAN_POINT('Ctrl Pts',(5.89807658406251,2.1928679141389,-0.586286922193344));
#172=CARTESIAN_POINT('Ctrl Pts',(5.83653319248726,1.96281156507597,-1.14007574712978));
#173=CARTESIAN_POINT('Ctrl Pts',(5.79187705013959,1.78998014753247,-1.39191982332223));
#174=CARTESIAN_POINT('Ctrl Pts',(5.70677104391421,1.39244458935995,-1.78961642102815));
#175=CARTESIAN_POINT('Ctrl Pts',(5.6606108248956,1.140563186,-1.96254062992175));
#176=CARTESIAN_POINT('Ctrl Pts',(5.5946530876108,0.58667573652159,-2.19277472568338));
#177=CARTESIAN_POINT('Ctrl Pts',(5.57597236100336,0.284502109194004,-2.25));
#178=CARTESIAN_POINT('Ctrl Pts',(5.57597236100336,-0.284502109194006,-2.25));
#179=CARTESIAN_POINT('Ctrl Pts',(5.5946530876108,-0.586675736521592,-2.19277472568338));
#180=CARTESIAN_POINT('Ctrl Pts',(5.6606108248956,-1.140563186,-1.96254062992175));
#181=CARTESIAN_POINT('Ctrl Pts',(5.70677104391421,-1.39244458935996,-1.78961642102815));
#182=CARTESIAN_POINT('Ctrl Pts',(5.79187705013959,-1.78998014753247,-1.39191982332223));
#183=CARTESIAN_POINT('Ctrl Pts',(5.83653319248726,-1.96281156507597,-1.14007574712978));
#184=CARTESIAN_POINT('Ctrl Pts',(5.89807658406251,-2.1928679141389,-0.586286922193344));
#185=CARTESIAN_POINT('Ctrl Pts',(5.91411240291566,-2.25,-0.284209321643939));
#186=CARTESIAN_POINT('Ctrl Pts',(5.91025153190981,-2.25,0.284682145590901));
#187=CARTESIAN_POINT('Ctrl Pts',(5.89005851883906,-2.19269747696355,0.586979913852742));
#188=CARTESIAN_POINT('Ctrl Pts',(5.82076792600883,-1.96235663392521,1.14088736565295));
#189=CARTESIAN_POINT('Ctrl Pts',(5.77251582636348,-1.78942000561117,1.39264476487512));
#190=CARTESIAN_POINT('Ctrl Pts',(5.68166640100031,-1.39196762307692,1.78992852879344));
#191=CARTESIAN_POINT('Ctrl Pts',(5.63294815325739,-1.14030666498148,1.96266553585285));
#192=CARTESIAN_POINT('Ctrl Pts',(5.5634954366876,-0.58669830503161,2.19274705901082));
#193=CARTESIAN_POINT('Ctrl Pts',(5.54389783938721,-0.28457082057617,2.25));
#194=CARTESIAN_POINT('Ctrl Pts',(5.54389783938721,-9.0205620750794E-016,
2.25));
#195=CARTESIAN_POINT('Ctrl Pts',(5.54389783938721,0.284570820576168,2.25));
#196=CARTESIAN_POINT('Ctrl Pts',(5.5634954366876,0.586698305031609,2.19274705901082));
#197=CARTESIAN_POINT('Ctrl Pts',(5.6329481532574,1.14030666498148,1.96266553585285));
#198=CARTESIAN_POINT('Ctrl Pts',(5.68166640100031,1.39196762307692,1.78992852879344));
#199=CARTESIAN_POINT('Ctrl Pts',(5.77251582636348,1.78942000561117,1.39264476487512));
#200=CARTESIAN_POINT('Ctrl Pts',(5.82076792600883,1.96235663392521,1.14088736565295));
#201=CARTESIAN_POINT('Ctrl Pts',(5.89005851883906,2.19269747696355,0.586979913852742));
#202=CARTESIAN_POINT('Ctrl Pts',(5.91025153190981,2.25,0.284682145590901));
#203=CARTESIAN_POINT('Ctrl Pts',(5.9121835718596,2.25,2.22044604925031E-016));
#204=CARTESIAN_POINT('Origin',(5.,-4.69324E-016,0.));
#205=CARTESIAN_POINT('',(-6.888411E-016,2.25,0.));
#206=CARTESIAN_POINT('Origin',(-9.000369E-016,8.448178E-032,0.));
#207=CARTESIAN_POINT('Origin',(-3.444205E-016,1.125,0.));
#208=CARTESIAN_POINT('',(0.,0.,0.));
#209=CARTESIAN_POINT($,(0.,0.,0.));
#210=CARTESIAN_POINT($,(45.,9.840698E-015,0.));
#211=UNCERTAINTY_MEASURE_WITH_UNIT(LENGTH_MEASURE(0.01),#217,
'DISTANCE_ACCURACY_VALUE',
'Maximum model space distance between geometric entities at asserted c
onnectivities');
#212=UNCERTAINTY_MEASURE_WITH_UNIT(LENGTH_MEASURE(0.01),#217,
'DISTANCE_ACCURACY_VALUE',
'Maximum model space distance between geometric entities at asserted c
onnectivities');
#213=UNCERTAINTY_MEASURE_WITH_UNIT(LENGTH_MEASURE(0.01),#217,
'DISTANCE_ACCURACY_VALUE',
'Maximum model space distance between geometric entities at asserted c
onnectivities');
#214=(
GEOMETRIC_REPRESENTATION_CONTEXT(3)
GLOBAL_UNCERTAINTY_ASSIGNED_CONTEXT((#211))
GLOBAL_UNIT_ASSIGNED_CONTEXT((#217,#220,#218))
REPRESENTATION_CONTEXT('','3D')
);
#215=(
GEOMETRIC_REPRESENTATION_CONTEXT(3)
GLOBAL_UNCERTAINTY_ASSIGNED_CONTEXT((#212))
GLOBAL_UNIT_ASSIGNED_CONTEXT((#217,#220,#218))
REPRESENTATION_CONTEXT('','3D')
);
#216=(
GEOMETRIC_REPRESENTATION_CONTEXT(3)
GLOBAL_UNCERTAINTY_ASSIGNED_CONTEXT((#213))
GLOBAL_UNIT_ASSIGNED_CONTEXT((#217,#220,#218))
REPRESENTATION_CONTEXT('','3D')
);
#217=(
LENGTH_UNIT()
NAMED_UNIT(*)
SI_UNIT(.MILLI.,.METRE.)
);
#218=(
NAMED_UNIT(*)
SI_UNIT($,.STERADIAN.)
SOLID_ANGLE_UNIT()
);
#219=DIMENSIONAL_EXPONENTS(0.,0.,0.,0.,0.,0.,0.);
#220=(
CONVERSION_BASED_UNIT('degree',#222)
NAMED_UNIT(#219)
PLANE_ANGLE_UNIT()
);
#221=(
NAMED_UNIT(*)
PLANE_ANGLE_UNIT()
SI_UNIT($,.RADIAN.)
);
#222=PLANE_ANGLE_MEASURE_WITH_UNIT(PLANE_ANGLE_MEASURE(0.01745329252),#221);
#223=SHAPE_DEFINITION_REPRESENTATION(#226,#231);
#224=SHAPE_DEFINITION_REPRESENTATION(#227,#232);
#225=SHAPE_DEFINITION_REPRESENTATION(#228,#233);
#226=PRODUCT_DEFINITION_SHAPE('',$,#235);
#227=PRODUCT_DEFINITION_SHAPE('',$,#236);
#228=PRODUCT_DEFINITION_SHAPE('',$,#237);
#229=PRODUCT_DEFINITION_SHAPE($,$,#16);
#230=PRODUCT_DEFINITION_SHAPE($,$,#17);
#231=SHAPE_REPRESENTATION('',(#98),#214);
#232=SHAPE_REPRESENTATION('',(#108),#215);
#233=SHAPE_REPRESENTATION('',(#113,#114,#115),#216);
#234=PRODUCT_DEFINITION_CONTEXT('3D Mechanical Parts',#242,'design');
#235=PRODUCT_DEFINITION('Geh\X\E4use_OS126001','Geh\X\E4use_OS126001',#238,
#234);
#236=PRODUCT_DEFINITION('Leitung_OS126001','Leitung_OS126001',#239,#234);
#237=PRODUCT_DEFINITION('OE126003','OE126003',#240,#234);
#238=PRODUCT_DEFINITION_FORMATION('',$,#244);
#239=PRODUCT_DEFINITION_FORMATION('',$,#245);
#240=PRODUCT_DEFINITION_FORMATION('',$,#246);
#241=APPLICATION_PROTOCOL_DEFINITION('international standard',
'automotive_design',2009,#242);
#242=APPLICATION_CONTEXT(
'Core Data for Automotive Mechanical Design Process');
#243=PRODUCT_CONTEXT('3D Mechanical Parts',#242,'mechanical');
#244=PRODUCT('Geh\X\E4use_OS126001','Geh\X\E4use_OS126001',$,(#243));
#245=PRODUCT('Leitung_OS126001','Leitung_OS126001',$,(#243));
#246=PRODUCT('OE126003','OE126003',$,(#243));
#247=PRESENTATION_STYLE_ASSIGNMENT((#250));
#248=PRESENTATION_STYLE_ASSIGNMENT((#251));
#249=PRESENTATION_STYLE_ASSIGNMENT((#252));
#250=SURFACE_STYLE_USAGE(.BOTH.,#253);
#251=SURFACE_STYLE_USAGE(.BOTH.,#254);
#252=SURFACE_STYLE_USAGE(.BOTH.,#255);
#253=SURFACE_SIDE_STYLE($,(#256));
#254=SURFACE_SIDE_STYLE($,(#257));
#255=SURFACE_SIDE_STYLE($,(#258));
#256=SURFACE_STYLE_FILL_AREA(#259);
#257=SURFACE_STYLE_FILL_AREA(#260);
#258=SURFACE_STYLE_FILL_AREA(#261);
#259=FILL_AREA_STYLE($,(#262));
#260=FILL_AREA_STYLE($,(#263));
#261=FILL_AREA_STYLE($,(#264));
#262=FILL_AREA_STYLE_COLOUR($,#265);
#263=FILL_AREA_STYLE_COLOUR($,#266);
#264=FILL_AREA_STYLE_COLOUR($,#267);
#265=COLOUR_RGB('',0.749019607843137,0.749019607843137,0.749019607843137);
#266=COLOUR_RGB('',0.752941176470588,0.752941176470588,0.752941176470588);
#267=COLOUR_RGB('',0.501960784313725,0.501960784313725,0.501960784313725);
ENDSEC;
END-ISO-10303-21;
