ISO-10303-21;
HEADER;
/* Generated by software containing ST-Developer
 * from STEP Tools, Inc. (www.steptools.com) 
 */

FILE_DESCRIPTION(
/* description */ (''),
/* implementation_level */ '2;1');

FILE_NAME(
/* name */ 
'C:\\Users\\mitarbeiter\\Desktop\\3D\\Imported Components\\LT207022\\L
T207022.stp',
/* time_stamp */ '2016-10-06T14:23:52+02:00',
/* author */ ('mitarbeiter'),
/* organization */ (''),
/* preprocessor_version */ 'ST-DEVELOPER v15.2',
/* originating_system */ 'Autodesk Inventor 2014',
/* authorisation */ '');

FILE_SCHEMA (('AUTOMOTIVE_DESIGN { 1 0 10303 214 3 1 1 }'));
ENDSEC;

DATA;
#10=ITEM_DEFINED_TRANSFORMATION($,$,#309,#361);
#11=(
REPRESENTATION_RELATIONSHIP($,$,#567,#568)
REPRESENTATION_RELATIONSHIP_WITH_TRANSFORMATION(#10)
SHAPE_REPRESENTATION_RELATIONSHIP()
);
#12=CONTEXT_DEPENDENT_SHAPE_REPRESENTATION(#11,#566);
#13=NEXT_ASSEMBLY_USAGE_OCCURRENCE('LT207022',$,$,#571,#570,$);
#14=SHAPE_REPRESENTATION_RELATIONSHIP('SRR','None',#567,#15);
#15=ADVANCED_BREP_SHAPE_REPRESENTATION($,(#308),#557);
#16=STYLED_ITEM($,(#579),#308);
#17=PLANE($,#350);
#18=PLANE($,#351);
#19=PLANE($,#352);
#20=PLANE($,#353);
#21=PLANE($,#354);
#22=PLANE($,#355);
#23=PLANE($,#356);
#24=PLANE($,#357);
#25=PLANE($,#358);
#26=PLANE($,#359);
#27=LINE($,#532,#31);
#28=LINE($,#535,#32);
#29=LINE($,#544,#33);
#30=LINE($,#545,#34);
#31=VECTOR($,#436,12.);
#32=VECTOR($,#439,12.);
#33=VECTOR($,#452,2.6457513110646);
#34=VECTOR($,#453,2.6457513110646);
#35=CYLINDRICAL_SURFACE($,#322,0.25);
#36=CYLINDRICAL_SURFACE($,#325,0.25);
#37=CYLINDRICAL_SURFACE($,#328,0.5);
#38=CYLINDRICAL_SURFACE($,#330,0.5);
#39=CYLINDRICAL_SURFACE($,#331,0.5);
#40=CYLINDRICAL_SURFACE($,#333,0.5);
#41=CYLINDRICAL_SURFACE($,#336,1.);
#42=CYLINDRICAL_SURFACE($,#339,0.5);
#43=CYLINDRICAL_SURFACE($,#341,0.5);
#44=CYLINDRICAL_SURFACE($,#342,0.5);
#45=CYLINDRICAL_SURFACE($,#344,2.);
#46=CYLINDRICAL_SURFACE($,#347,1.25);
#47=FACE_BOUND($,#96,.T.);
#48=FACE_BOUND($,#98,.T.);
#49=FACE_BOUND($,#100,.T.);
#50=FACE_BOUND($,#102,.T.);
#51=FACE_BOUND($,#104,.T.);
#52=FACE_BOUND($,#106,.T.);
#53=FACE_BOUND($,#108,.T.);
#54=FACE_BOUND($,#110,.T.);
#55=FACE_BOUND($,#112,.T.);
#56=FACE_BOUND($,#114,.T.);
#57=FACE_BOUND($,#116,.T.);
#58=FACE_BOUND($,#118,.T.);
#59=FACE_BOUND($,#120,.T.);
#60=FACE_BOUND($,#122,.T.);
#61=FACE_BOUND($,#125,.T.);
#62=FACE_BOUND($,#127,.T.);
#63=FACE_BOUND($,#129,.T.);
#64=FACE_BOUND($,#130,.T.);
#65=FACE_BOUND($,#133,.T.);
#66=FACE_BOUND($,#134,.T.);
#67=FACE_BOUND($,#136,.T.);
#68=FACE_BOUND($,#138,.T.);
#69=FACE_OUTER_BOUND($,#95,.T.);
#70=FACE_OUTER_BOUND($,#97,.T.);
#71=FACE_OUTER_BOUND($,#99,.T.);
#72=FACE_OUTER_BOUND($,#101,.T.);
#73=FACE_OUTER_BOUND($,#103,.T.);
#74=FACE_OUTER_BOUND($,#105,.T.);
#75=FACE_OUTER_BOUND($,#107,.T.);
#76=FACE_OUTER_BOUND($,#109,.T.);
#77=FACE_OUTER_BOUND($,#111,.T.);
#78=FACE_OUTER_BOUND($,#113,.T.);
#79=FACE_OUTER_BOUND($,#115,.T.);
#80=FACE_OUTER_BOUND($,#117,.T.);
#81=FACE_OUTER_BOUND($,#119,.T.);
#82=FACE_OUTER_BOUND($,#121,.T.);
#83=FACE_OUTER_BOUND($,#123,.T.);
#84=FACE_OUTER_BOUND($,#124,.T.);
#85=FACE_OUTER_BOUND($,#126,.T.);
#86=FACE_OUTER_BOUND($,#128,.T.);
#87=FACE_OUTER_BOUND($,#131,.T.);
#88=FACE_OUTER_BOUND($,#132,.T.);
#89=FACE_OUTER_BOUND($,#135,.T.);
#90=FACE_OUTER_BOUND($,#137,.T.);
#91=FACE_OUTER_BOUND($,#139,.T.);
#92=FACE_OUTER_BOUND($,#140,.T.);
#93=FACE_OUTER_BOUND($,#141,.T.);
#94=FACE_OUTER_BOUND($,#142,.T.);
#95=EDGE_LOOP($,(#221));
#96=EDGE_LOOP($,(#222));
#97=EDGE_LOOP($,(#223));
#98=EDGE_LOOP($,(#224));
#99=EDGE_LOOP($,(#225));
#100=EDGE_LOOP($,(#226));
#101=EDGE_LOOP($,(#227));
#102=EDGE_LOOP($,(#228));
#103=EDGE_LOOP($,(#229));
#104=EDGE_LOOP($,(#230));
#105=EDGE_LOOP($,(#231));
#106=EDGE_LOOP($,(#232));
#107=EDGE_LOOP($,(#233));
#108=EDGE_LOOP($,(#234));
#109=EDGE_LOOP($,(#235));
#110=EDGE_LOOP($,(#236));
#111=EDGE_LOOP($,(#237));
#112=EDGE_LOOP($,(#238));
#113=EDGE_LOOP($,(#239));
#114=EDGE_LOOP($,(#240));
#115=EDGE_LOOP($,(#241));
#116=EDGE_LOOP($,(#242));
#117=EDGE_LOOP($,(#243));
#118=EDGE_LOOP($,(#244));
#119=EDGE_LOOP($,(#245));
#120=EDGE_LOOP($,(#246));
#121=EDGE_LOOP($,(#247));
#122=EDGE_LOOP($,(#248));
#123=EDGE_LOOP($,(#249,#250,#251,#252));
#124=EDGE_LOOP($,(#253));
#125=EDGE_LOOP($,(#254));
#126=EDGE_LOOP($,(#255));
#127=EDGE_LOOP($,(#256));
#128=EDGE_LOOP($,(#257));
#129=EDGE_LOOP($,(#258));
#130=EDGE_LOOP($,(#259));
#131=EDGE_LOOP($,(#260,#261,#262,#263));
#132=EDGE_LOOP($,(#264,#265));
#133=EDGE_LOOP($,(#266));
#134=EDGE_LOOP($,(#267));
#135=EDGE_LOOP($,(#268,#269));
#136=EDGE_LOOP($,(#270));
#137=EDGE_LOOP($,(#271));
#138=EDGE_LOOP($,(#272));
#139=EDGE_LOOP($,(#273));
#140=EDGE_LOOP($,(#274));
#141=EDGE_LOOP($,(#275));
#142=EDGE_LOOP($,(#276));
#143=CIRCLE($,#311,0.5);
#144=CIRCLE($,#312,0.5);
#145=CIRCLE($,#314,0.5);
#146=CIRCLE($,#315,0.5);
#147=CIRCLE($,#317,0.5);
#148=CIRCLE($,#318,0.5);
#149=CIRCLE($,#320,0.5);
#150=CIRCLE($,#321,0.5);
#151=CIRCLE($,#323,0.25);
#152=CIRCLE($,#324,0.25);
#153=CIRCLE($,#326,0.25);
#154=CIRCLE($,#327,0.25);
#155=CIRCLE($,#329,0.5);
#156=CIRCLE($,#332,0.5);
#157=CIRCLE($,#334,0.5);
#158=CIRCLE($,#335,0.5);
#159=CIRCLE($,#337,1.);
#160=CIRCLE($,#338,1.);
#161=CIRCLE($,#340,0.5);
#162=CIRCLE($,#343,0.5);
#163=CIRCLE($,#345,2.);
#164=CIRCLE($,#346,2.);
#165=CIRCLE($,#348,1.25);
#166=CIRCLE($,#349,1.25);
#167=VERTEX_POINT($,#474);
#168=VERTEX_POINT($,#476);
#169=VERTEX_POINT($,#479);
#170=VERTEX_POINT($,#481);
#171=VERTEX_POINT($,#484);
#172=VERTEX_POINT($,#486);
#173=VERTEX_POINT($,#489);
#174=VERTEX_POINT($,#491);
#175=VERTEX_POINT($,#494);
#176=VERTEX_POINT($,#496);
#177=VERTEX_POINT($,#499);
#178=VERTEX_POINT($,#501);
#179=VERTEX_POINT($,#504);
#180=VERTEX_POINT($,#508);
#181=VERTEX_POINT($,#511);
#182=VERTEX_POINT($,#513);
#183=VERTEX_POINT($,#516);
#184=VERTEX_POINT($,#518);
#185=VERTEX_POINT($,#521);
#186=VERTEX_POINT($,#525);
#187=VERTEX_POINT($,#528);
#188=VERTEX_POINT($,#529);
#189=VERTEX_POINT($,#531);
#190=VERTEX_POINT($,#533);
#191=VERTEX_POINT($,#537);
#192=VERTEX_POINT($,#539);
#193=EDGE_CURVE($,#167,#167,#143,.T.);
#194=EDGE_CURVE($,#168,#168,#144,.T.);
#195=EDGE_CURVE($,#169,#169,#145,.T.);
#196=EDGE_CURVE($,#170,#170,#146,.T.);
#197=EDGE_CURVE($,#171,#171,#147,.T.);
#198=EDGE_CURVE($,#172,#172,#148,.T.);
#199=EDGE_CURVE($,#173,#173,#149,.T.);
#200=EDGE_CURVE($,#174,#174,#150,.T.);
#201=EDGE_CURVE($,#175,#175,#151,.T.);
#202=EDGE_CURVE($,#176,#176,#152,.T.);
#203=EDGE_CURVE($,#177,#177,#153,.T.);
#204=EDGE_CURVE($,#178,#178,#154,.T.);
#205=EDGE_CURVE($,#179,#179,#155,.T.);
#206=EDGE_CURVE($,#180,#180,#156,.T.);
#207=EDGE_CURVE($,#181,#181,#157,.T.);
#208=EDGE_CURVE($,#182,#182,#158,.T.);
#209=EDGE_CURVE($,#183,#183,#159,.T.);
#210=EDGE_CURVE($,#184,#184,#160,.T.);
#211=EDGE_CURVE($,#185,#185,#161,.T.);
#212=EDGE_CURVE($,#186,#186,#162,.T.);
#213=EDGE_CURVE($,#187,#188,#163,.T.);
#214=EDGE_CURVE($,#187,#189,#27,.T.);
#215=EDGE_CURVE($,#189,#190,#164,.T.);
#216=EDGE_CURVE($,#188,#190,#28,.T.);
#217=EDGE_CURVE($,#191,#191,#165,.T.);
#218=EDGE_CURVE($,#192,#192,#166,.T.);
#219=EDGE_CURVE($,#190,#189,#29,.T.);
#220=EDGE_CURVE($,#188,#187,#30,.T.);
#221=ORIENTED_EDGE($,*,*,#193,.T.);
#222=ORIENTED_EDGE($,*,*,#194,.F.);
#223=ORIENTED_EDGE($,*,*,#195,.T.);
#224=ORIENTED_EDGE($,*,*,#196,.F.);
#225=ORIENTED_EDGE($,*,*,#197,.T.);
#226=ORIENTED_EDGE($,*,*,#198,.F.);
#227=ORIENTED_EDGE($,*,*,#199,.T.);
#228=ORIENTED_EDGE($,*,*,#200,.F.);
#229=ORIENTED_EDGE($,*,*,#201,.F.);
#230=ORIENTED_EDGE($,*,*,#202,.T.);
#231=ORIENTED_EDGE($,*,*,#203,.F.);
#232=ORIENTED_EDGE($,*,*,#204,.T.);
#233=ORIENTED_EDGE($,*,*,#193,.F.);
#234=ORIENTED_EDGE($,*,*,#205,.T.);
#235=ORIENTED_EDGE($,*,*,#194,.T.);
#236=ORIENTED_EDGE($,*,*,#195,.F.);
#237=ORIENTED_EDGE($,*,*,#196,.T.);
#238=ORIENTED_EDGE($,*,*,#206,.F.);
#239=ORIENTED_EDGE($,*,*,#207,.F.);
#240=ORIENTED_EDGE($,*,*,#208,.T.);
#241=ORIENTED_EDGE($,*,*,#209,.F.);
#242=ORIENTED_EDGE($,*,*,#210,.T.);
#243=ORIENTED_EDGE($,*,*,#197,.F.);
#244=ORIENTED_EDGE($,*,*,#211,.T.);
#245=ORIENTED_EDGE($,*,*,#198,.T.);
#246=ORIENTED_EDGE($,*,*,#199,.F.);
#247=ORIENTED_EDGE($,*,*,#200,.T.);
#248=ORIENTED_EDGE($,*,*,#212,.F.);
#249=ORIENTED_EDGE($,*,*,#213,.F.);
#250=ORIENTED_EDGE($,*,*,#214,.T.);
#251=ORIENTED_EDGE($,*,*,#215,.T.);
#252=ORIENTED_EDGE($,*,*,#216,.F.);
#253=ORIENTED_EDGE($,*,*,#217,.T.);
#254=ORIENTED_EDGE($,*,*,#218,.F.);
#255=ORIENTED_EDGE($,*,*,#209,.T.);
#256=ORIENTED_EDGE($,*,*,#208,.F.);
#257=ORIENTED_EDGE($,*,*,#218,.T.);
#258=ORIENTED_EDGE($,*,*,#202,.F.);
#259=ORIENTED_EDGE($,*,*,#204,.F.);
#260=ORIENTED_EDGE($,*,*,#219,.T.);
#261=ORIENTED_EDGE($,*,*,#214,.F.);
#262=ORIENTED_EDGE($,*,*,#220,.F.);
#263=ORIENTED_EDGE($,*,*,#216,.T.);
#264=ORIENTED_EDGE($,*,*,#213,.T.);
#265=ORIENTED_EDGE($,*,*,#220,.T.);
#266=ORIENTED_EDGE($,*,*,#205,.F.);
#267=ORIENTED_EDGE($,*,*,#211,.F.);
#268=ORIENTED_EDGE($,*,*,#215,.F.);
#269=ORIENTED_EDGE($,*,*,#219,.F.);
#270=ORIENTED_EDGE($,*,*,#217,.F.);
#271=ORIENTED_EDGE($,*,*,#210,.F.);
#272=ORIENTED_EDGE($,*,*,#212,.T.);
#273=ORIENTED_EDGE($,*,*,#207,.T.);
#274=ORIENTED_EDGE($,*,*,#206,.T.);
#275=ORIENTED_EDGE($,*,*,#203,.T.);
#276=ORIENTED_EDGE($,*,*,#201,.T.);
#277=TOROIDAL_SURFACE($,#310,4.,0.5);
#278=TOROIDAL_SURFACE($,#313,4.00000000000001,0.5);
#279=TOROIDAL_SURFACE($,#316,4.,0.5);
#280=TOROIDAL_SURFACE($,#319,4.,0.5);
#281=ADVANCED_FACE($,(#69,#47),#277,.T.);
#282=ADVANCED_FACE($,(#70,#48),#278,.T.);
#283=ADVANCED_FACE($,(#71,#49),#279,.T.);
#284=ADVANCED_FACE($,(#72,#50),#280,.T.);
#285=ADVANCED_FACE($,(#73,#51),#35,.F.);
#286=ADVANCED_FACE($,(#74,#52),#36,.F.);
#287=ADVANCED_FACE($,(#75,#53),#37,.T.);
#288=ADVANCED_FACE($,(#76,#54),#38,.T.);
#289=ADVANCED_FACE($,(#77,#55),#39,.T.);
#290=ADVANCED_FACE($,(#78,#56),#40,.T.);
#291=ADVANCED_FACE($,(#79,#57),#41,.T.);
#292=ADVANCED_FACE($,(#80,#58),#42,.T.);
#293=ADVANCED_FACE($,(#81,#59),#43,.T.);
#294=ADVANCED_FACE($,(#82,#60),#44,.T.);
#295=ADVANCED_FACE($,(#83),#45,.T.);
#296=ADVANCED_FACE($,(#84,#61),#46,.T.);
#297=ADVANCED_FACE($,(#85,#62),#17,.T.);
#298=ADVANCED_FACE($,(#86,#63,#64),#18,.T.);
#299=ADVANCED_FACE($,(#87),#19,.F.);
#300=ADVANCED_FACE($,(#88,#65,#66),#20,.T.);
#301=ADVANCED_FACE($,(#89,#67),#21,.F.);
#302=ADVANCED_FACE($,(#90,#68),#22,.F.);
#303=ADVANCED_FACE($,(#91),#23,.T.);
#304=ADVANCED_FACE($,(#92),#24,.T.);
#305=ADVANCED_FACE($,(#93),#25,.T.);
#306=ADVANCED_FACE($,(#94),#26,.T.);
#307=CLOSED_SHELL($,(#281,#282,#283,#284,#285,#286,#287,#288,#289,#290,
#291,#292,#293,#294,#295,#296,#297,#298,#299,#300,#301,#302,#303,#304,#305,
#306));
#308=MANIFOLD_SOLID_BREP('NONE',#307);
#309=AXIS2_PLACEMENT_3D('placement',#472,#362,#363);
#310=AXIS2_PLACEMENT_3D($,#473,#364,#365);
#311=AXIS2_PLACEMENT_3D($,#475,#366,#367);
#312=AXIS2_PLACEMENT_3D($,#477,#368,#369);
#313=AXIS2_PLACEMENT_3D($,#478,#370,#371);
#314=AXIS2_PLACEMENT_3D($,#480,#372,#373);
#315=AXIS2_PLACEMENT_3D($,#482,#374,#375);
#316=AXIS2_PLACEMENT_3D($,#483,#376,#377);
#317=AXIS2_PLACEMENT_3D($,#485,#378,#379);
#318=AXIS2_PLACEMENT_3D($,#487,#380,#381);
#319=AXIS2_PLACEMENT_3D($,#488,#382,#383);
#320=AXIS2_PLACEMENT_3D($,#490,#384,#385);
#321=AXIS2_PLACEMENT_3D($,#492,#386,#387);
#322=AXIS2_PLACEMENT_3D($,#493,#388,#389);
#323=AXIS2_PLACEMENT_3D($,#495,#390,#391);
#324=AXIS2_PLACEMENT_3D($,#497,#392,#393);
#325=AXIS2_PLACEMENT_3D($,#498,#394,#395);
#326=AXIS2_PLACEMENT_3D($,#500,#396,#397);
#327=AXIS2_PLACEMENT_3D($,#502,#398,#399);
#328=AXIS2_PLACEMENT_3D($,#503,#400,#401);
#329=AXIS2_PLACEMENT_3D($,#505,#402,#403);
#330=AXIS2_PLACEMENT_3D($,#506,#404,#405);
#331=AXIS2_PLACEMENT_3D($,#507,#406,#407);
#332=AXIS2_PLACEMENT_3D($,#509,#408,#409);
#333=AXIS2_PLACEMENT_3D($,#510,#410,#411);
#334=AXIS2_PLACEMENT_3D($,#512,#412,#413);
#335=AXIS2_PLACEMENT_3D($,#514,#414,#415);
#336=AXIS2_PLACEMENT_3D($,#515,#416,#417);
#337=AXIS2_PLACEMENT_3D($,#517,#418,#419);
#338=AXIS2_PLACEMENT_3D($,#519,#420,#421);
#339=AXIS2_PLACEMENT_3D($,#520,#422,#423);
#340=AXIS2_PLACEMENT_3D($,#522,#424,#425);
#341=AXIS2_PLACEMENT_3D($,#523,#426,#427);
#342=AXIS2_PLACEMENT_3D($,#524,#428,#429);
#343=AXIS2_PLACEMENT_3D($,#526,#430,#431);
#344=AXIS2_PLACEMENT_3D($,#527,#432,#433);
#345=AXIS2_PLACEMENT_3D($,#530,#434,#435);
#346=AXIS2_PLACEMENT_3D($,#534,#437,#438);
#347=AXIS2_PLACEMENT_3D($,#536,#440,#441);
#348=AXIS2_PLACEMENT_3D($,#538,#442,#443);
#349=AXIS2_PLACEMENT_3D($,#540,#444,#445);
#350=AXIS2_PLACEMENT_3D($,#541,#446,#447);
#351=AXIS2_PLACEMENT_3D($,#542,#448,#449);
#352=AXIS2_PLACEMENT_3D($,#543,#450,#451);
#353=AXIS2_PLACEMENT_3D($,#546,#454,#455);
#354=AXIS2_PLACEMENT_3D($,#547,#456,#457);
#355=AXIS2_PLACEMENT_3D($,#548,#458,#459);
#356=AXIS2_PLACEMENT_3D($,#549,#460,#461);
#357=AXIS2_PLACEMENT_3D($,#550,#462,#463);
#358=AXIS2_PLACEMENT_3D($,#551,#464,#465);
#359=AXIS2_PLACEMENT_3D($,#552,#466,#467);
#360=AXIS2_PLACEMENT_3D('placement',#553,#468,#469);
#361=AXIS2_PLACEMENT_3D($,#554,#470,#471);
#362=DIRECTION('axis',(0.,0.,1.));
#363=DIRECTION('refdir',(1.,0.,0.));
#364=DIRECTION('center_axis',(1.,0.,0.));
#365=DIRECTION('ref_axis',(0.,0.,-1.));
#366=DIRECTION('center_axis',(0.,0.,-1.));
#367=DIRECTION('ref_axis',(-1.,0.,0.));
#368=DIRECTION('center_axis',(0.,0.605083267533558,-0.796162194123103));
#369=DIRECTION('ref_axis',(-1.,0.,0.));
#370=DIRECTION('center_axis',(-1.,0.,0.));
#371=DIRECTION('ref_axis',(0.,0.,1.));
#372=DIRECTION('center_axis',(0.,0.605083267533558,-0.796162194123103));
#373=DIRECTION('ref_axis',(-1.,0.,0.));
#374=DIRECTION('center_axis',(0.,-6.66133814775094E-016,-1.));
#375=DIRECTION('ref_axis',(-1.,0.,0.));
#376=DIRECTION('center_axis',(-1.,0.,0.));
#377=DIRECTION('ref_axis',(0.,0.,1.));
#378=DIRECTION('center_axis',(0.,0.,-1.));
#379=DIRECTION('ref_axis',(-1.,0.,0.));
#380=DIRECTION('center_axis',(0.,-0.684910008767887,-0.728627668902007));
#381=DIRECTION('ref_axis',(-1.,0.,0.));
#382=DIRECTION('center_axis',(1.,0.,0.));
#383=DIRECTION('ref_axis',(0.,0.,-1.));
#384=DIRECTION('center_axis',(0.,-0.684910008767887,-0.728627668902007));
#385=DIRECTION('ref_axis',(-1.,0.,0.));
#386=DIRECTION('center_axis',(0.,-2.22044604925031E-016,-1.));
#387=DIRECTION('ref_axis',(-1.,0.,0.));
#388=DIRECTION('center_axis',(0.,0.,1.));
#389=DIRECTION('ref_axis',(1.,0.,0.));
#390=DIRECTION('center_axis',(0.,0.,1.));
#391=DIRECTION('ref_axis',(1.,0.,0.));
#392=DIRECTION('center_axis',(0.,0.,1.));
#393=DIRECTION('ref_axis',(1.,0.,0.));
#394=DIRECTION('center_axis',(0.,0.,1.));
#395=DIRECTION('ref_axis',(1.,0.,0.));
#396=DIRECTION('center_axis',(0.,0.,1.));
#397=DIRECTION('ref_axis',(1.,0.,0.));
#398=DIRECTION('center_axis',(0.,0.,1.));
#399=DIRECTION('ref_axis',(1.,0.,0.));
#400=DIRECTION('center_axis',(0.,1.18735432542909E-016,1.));
#401=DIRECTION('ref_axis',(0.,-1.,1.18735432542909E-016));
#402=DIRECTION('center_axis',(0.,0.,-1.));
#403=DIRECTION('ref_axis',(-1.,0.,0.));
#404=DIRECTION('center_axis',(0.,0.605083267533559,-0.796162194123102));
#405=DIRECTION('ref_axis',(0.,0.796162194123102,0.605083267533559));
#406=DIRECTION('center_axis',(0.,-6.73199762792247E-017,-1.));
#407=DIRECTION('ref_axis',(0.,1.,-6.73199762792247E-017));
#408=DIRECTION('center_axis',(0.,-6.66133814775094E-016,-1.));
#409=DIRECTION('ref_axis',(-1.,0.,0.));
#410=DIRECTION('center_axis',(0.,1.66533453693773E-016,1.));
#411=DIRECTION('ref_axis',(0.,-1.,1.66533453693773E-016));
#412=DIRECTION('center_axis',(0.,-1.66533453693773E-016,-1.));
#413=DIRECTION('ref_axis',(0.,1.,-1.66533453693773E-016));
#414=DIRECTION('center_axis',(0.,-1.66533453693773E-016,-1.));
#415=DIRECTION('ref_axis',(0.,1.,-1.66533453693773E-016));
#416=DIRECTION('center_axis',(0.,1.66533453693773E-016,1.));
#417=DIRECTION('ref_axis',(0.,-1.,1.66533453693773E-016));
#418=DIRECTION('center_axis',(0.,-1.66533453693773E-016,-1.));
#419=DIRECTION('ref_axis',(0.,1.,-1.66533453693773E-016));
#420=DIRECTION('center_axis',(0.,-1.66533453693773E-016,-1.));
#421=DIRECTION('ref_axis',(0.,1.,-1.66533453693773E-016));
#422=DIRECTION('center_axis',(0.,-3.17469706232604E-017,1.));
#423=DIRECTION('ref_axis',(0.,-1.,-3.17469706232604E-017));
#424=DIRECTION('center_axis',(0.,0.,-1.));
#425=DIRECTION('ref_axis',(-1.,0.,0.));
#426=DIRECTION('center_axis',(0.,-0.684910008767886,-0.728627668902008));
#427=DIRECTION('ref_axis',(0.,0.728627668902008,-0.684910008767886));
#428=DIRECTION('center_axis',(0.,-5.07951529972166E-016,-1.));
#429=DIRECTION('ref_axis',(0.,1.,-5.07951529972166E-016));
#430=DIRECTION('center_axis',(0.,-2.22044604925031E-016,-1.));
#431=DIRECTION('ref_axis',(-1.,0.,0.));
#432=DIRECTION('center_axis',(0.,0.,1.));
#433=DIRECTION('ref_axis',(1.,0.,0.));
#434=DIRECTION('center_axis',(0.,0.,-1.));
#435=DIRECTION('ref_axis',(-1.,0.,0.));
#436=DIRECTION($,(0.,0.,1.));
#437=DIRECTION('center_axis',(0.,0.,-1.));
#438=DIRECTION('ref_axis',(-1.,0.,0.));
#439=DIRECTION($,(0.,0.,1.));
#440=DIRECTION('center_axis',(0.,0.,1.));
#441=DIRECTION('ref_axis',(1.,0.,0.));
#442=DIRECTION('center_axis',(0.,0.,1.));
#443=DIRECTION('ref_axis',(-1.,0.,0.));
#444=DIRECTION('center_axis',(0.,0.,1.));
#445=DIRECTION('ref_axis',(1.,0.,0.));
#446=DIRECTION('center_axis',(0.,-1.66533453693773E-016,-1.));
#447=DIRECTION('ref_axis',(0.,1.,0.));
#448=DIRECTION('center_axis',(0.,0.,1.));
#449=DIRECTION('ref_axis',(1.,0.,0.));
#450=DIRECTION('center_axis',(1.,0.,0.));
#451=DIRECTION('ref_axis',(0.,0.,-1.));
#452=DIRECTION($,(0.,1.,0.));
#453=DIRECTION($,(0.,1.,0.));
#454=DIRECTION('center_axis',(0.,0.,-1.));
#455=DIRECTION('ref_axis',(-1.,0.,0.));
#456=DIRECTION('center_axis',(0.,0.,-1.));
#457=DIRECTION('ref_axis',(-1.,0.,0.));
#458=DIRECTION('center_axis',(0.,-1.66533453693773E-016,-1.));
#459=DIRECTION('ref_axis',(0.,1.,0.));
#460=DIRECTION('center_axis',(0.,-1.66533453693773E-016,-1.));
#461=DIRECTION('ref_axis',(0.,1.,0.));
#462=DIRECTION('center_axis',(0.,-6.66133814775094E-016,-1.));
#463=DIRECTION('ref_axis',(-1.,0.,0.));
#464=DIRECTION('center_axis',(0.,0.,1.));
#465=DIRECTION('ref_axis',(1.,0.,0.));
#466=DIRECTION('center_axis',(0.,0.,1.));
#467=DIRECTION('ref_axis',(1.,0.,0.));
#468=DIRECTION('axis',(0.,0.,1.));
#469=DIRECTION('refdir',(1.,0.,0.));
#470=DIRECTION($,(0.,0.,1.));
#471=DIRECTION($,(1.,0.,0.));
#472=CARTESIAN_POINT('',(0.,0.,0.));
#473=CARTESIAN_POINT('Origin',(0.,5.2,-17.6524974871126));
#474=CARTESIAN_POINT('',(6.12303176911189E-017,1.7,-17.6524974871126));
#475=CARTESIAN_POINT('Origin',(0.,1.2,-17.6524974871126));
#476=CARTESIAN_POINT('',(0.,2.41343232056914,-19.77028892348));
#477=CARTESIAN_POINT('Origin',(0.,2.01535122350759,-20.0728305572468));
#478=CARTESIAN_POINT('Origin',(0.,1.,-25.3475025128874));
#479=CARTESIAN_POINT('',(6.12303176911189E-017,3.78656767943087,-23.2297110765199));
#480=CARTESIAN_POINT('Origin',(0.,4.18464877649242,-22.9271694427532));
#481=CARTESIAN_POINT('',(6.12303176911188E-017,4.50000000000001,-25.3475025128874));
#482=CARTESIAN_POINT('Origin',(0.,5.00000000000001,-25.3475025128874));
#483=CARTESIAN_POINT('Origin',(0.,-4.3,-17.4151358419412));
#484=CARTESIAN_POINT('',(0.,-0.8,-17.4151358419412));
#485=CARTESIAN_POINT('Origin',(0.,-0.3,-17.4151358419412));
#486=CARTESIAN_POINT('',(6.12303176911189E-017,-1.74980315884297,-19.8123208726288));
#487=CARTESIAN_POINT('Origin',(0.,-1.38548932439197,-20.1547758770127));
#488=CARTESIAN_POINT('Origin',(0.,-1.,-25.5848641580588));
#489=CARTESIAN_POINT('',(0.,-3.55019684115702,-23.1876791273712));
#490=CARTESIAN_POINT('Origin',(0.,-3.91451067560803,-22.8452241229873));
#491=CARTESIAN_POINT('',(0.,-4.5,-25.5848641580588));
#492=CARTESIAN_POINT('Origin',(0.,-5.,-25.5848641580588));
#493=CARTESIAN_POINT('Origin',(0.,0.9,-0.1));
#494=CARTESIAN_POINT('',(0.25,0.9,-0.1));
#495=CARTESIAN_POINT('Origin',(0.,0.9,-0.1));
#496=CARTESIAN_POINT('',(0.25,0.9,0.));
#497=CARTESIAN_POINT('Origin',(0.,0.9,0.));
#498=CARTESIAN_POINT('Origin',(0.,0.,-0.1));
#499=CARTESIAN_POINT('',(0.25,0.,-0.1));
#500=CARTESIAN_POINT('Origin',(0.,0.,-0.1));
#501=CARTESIAN_POINT('',(0.25,0.,0.));
#502=CARTESIAN_POINT('Origin',(0.,0.,0.));
#503=CARTESIAN_POINT('Origin',(0.,1.2,-17.6524974871126));
#504=CARTESIAN_POINT('',(0.,0.7,-14.));
#505=CARTESIAN_POINT('Origin',(0.,1.2,-14.));
#506=CARTESIAN_POINT('Origin',(0.,2.01535122350759,-20.0728305572468));
#507=CARTESIAN_POINT('Origin',(0.,5.00000000000001,-25.3475025128874));
#508=CARTESIAN_POINT('',(0.,5.50000000000001,-64.));
#509=CARTESIAN_POINT('Origin',(0.,5.00000000000001,-64.));
#510=CARTESIAN_POINT('Origin',(0.,-5.00000000000001,-64.));
#511=CARTESIAN_POINT('',(0.,-5.50000000000001,-64.));
#512=CARTESIAN_POINT('Origin',(0.,-5.00000000000001,-64.));
#513=CARTESIAN_POINT('',(0.,-5.50000000000001,-59.));
#514=CARTESIAN_POINT('Origin',(0.,-5.,-59.));
#515=CARTESIAN_POINT('Origin',(0.,-5.00000000000001,-59.));
#516=CARTESIAN_POINT('',(0.,-6.00000000000001,-59.));
#517=CARTESIAN_POINT('Origin',(0.,-5.00000000000001,-59.));
#518=CARTESIAN_POINT('',(0.,-6.,-29.));
#519=CARTESIAN_POINT('Origin',(0.,-5.,-29.));
#520=CARTESIAN_POINT('Origin',(0.,-0.3,-17.4151358419412));
#521=CARTESIAN_POINT('',(0.,-0.8,-14.));
#522=CARTESIAN_POINT('Origin',(0.,-0.3,-14.));
#523=CARTESIAN_POINT('Origin',(0.,-1.38548932439197,-20.1547758770127));
#524=CARTESIAN_POINT('Origin',(0.,-5.,-25.5848641580588));
#525=CARTESIAN_POINT('',(0.,-4.5,-29.));
#526=CARTESIAN_POINT('Origin',(0.,-5.,-29.));
#527=CARTESIAN_POINT('Origin',(0.,0.45,-14.));
#528=CARTESIAN_POINT('',(-1.5,1.7728756555323,-14.));
#529=CARTESIAN_POINT('',(-1.5,-0.872875655532296,-14.));
#530=CARTESIAN_POINT('Origin',(0.,0.45,-14.));
#531=CARTESIAN_POINT('',(-1.5,1.7728756555323,-2.));
#532=CARTESIAN_POINT($,(-1.5,1.7728756555323,-14.));
#533=CARTESIAN_POINT('',(-1.5,-0.872875655532296,-2.));
#534=CARTESIAN_POINT('Origin',(0.,0.45,-2.));
#535=CARTESIAN_POINT($,(-1.5,-0.872875655532296,-14.));
#536=CARTESIAN_POINT('Origin',(0.,0.45,-2.));
#537=CARTESIAN_POINT('',(1.25,0.45,-2.));
#538=CARTESIAN_POINT('Origin',(0.,0.45,-2.));
#539=CARTESIAN_POINT('',(1.25,0.45,0.));
#540=CARTESIAN_POINT('Origin',(0.,0.45,0.));
#541=CARTESIAN_POINT('Origin',(0.,-5.00000000000001,-59.));
#542=CARTESIAN_POINT('Origin',(0.,0.45,0.));
#543=CARTESIAN_POINT('Origin',(-1.5,-0.872875655532295,-14.));
#544=CARTESIAN_POINT($,(-1.5,-0.872875655532295,-2.));
#545=CARTESIAN_POINT($,(-1.5,-0.872875655532295,-14.));
#546=CARTESIAN_POINT('Origin',(0.,0.45,-14.));
#547=CARTESIAN_POINT('Origin',(0.,0.45,-2.));
#548=CARTESIAN_POINT('Origin',(0.,-5.,-29.));
#549=CARTESIAN_POINT('Origin',(0.,-5.00000000000001,-64.));
#550=CARTESIAN_POINT('Origin',(0.,5.00000000000001,-64.));
#551=CARTESIAN_POINT('Origin',(0.,0.,-0.1));
#552=CARTESIAN_POINT('Origin',(0.,0.9,-0.1));
#553=CARTESIAN_POINT('',(0.,0.,0.));
#554=CARTESIAN_POINT($,(0.,0.,0.));
#555=UNCERTAINTY_MEASURE_WITH_UNIT(LENGTH_MEASURE(0.01),#559,
'DISTANCE_ACCURACY_VALUE',
'Maximum model space distance between geometric entities at asserted c
onnectivities');
#556=UNCERTAINTY_MEASURE_WITH_UNIT(LENGTH_MEASURE(0.01),#559,
'DISTANCE_ACCURACY_VALUE',
'Maximum model space distance between geometric entities at asserted c
onnectivities');
#557=(
GEOMETRIC_REPRESENTATION_CONTEXT(3)
GLOBAL_UNCERTAINTY_ASSIGNED_CONTEXT((#555))
GLOBAL_UNIT_ASSIGNED_CONTEXT((#559,#561,#560))
REPRESENTATION_CONTEXT('','3D')
);
#558=(
GEOMETRIC_REPRESENTATION_CONTEXT(3)
GLOBAL_UNCERTAINTY_ASSIGNED_CONTEXT((#556))
GLOBAL_UNIT_ASSIGNED_CONTEXT((#559,#561,#560))
REPRESENTATION_CONTEXT('','3D')
);
#559=(
LENGTH_UNIT()
NAMED_UNIT(*)
SI_UNIT(.MILLI.,.METRE.)
);
#560=(
NAMED_UNIT(*)
SI_UNIT($,.STERADIAN.)
SOLID_ANGLE_UNIT()
);
#561=(
NAMED_UNIT(*)
PLANE_ANGLE_UNIT()
SI_UNIT($,.RADIAN.)
);
#562=SHAPE_DEFINITION_REPRESENTATION(#564,#567);
#563=SHAPE_DEFINITION_REPRESENTATION(#565,#568);
#564=PRODUCT_DEFINITION_SHAPE('',$,#570);
#565=PRODUCT_DEFINITION_SHAPE('',$,#571);
#566=PRODUCT_DEFINITION_SHAPE($,$,#13);
#567=SHAPE_REPRESENTATION('',(#309),#557);
#568=SHAPE_REPRESENTATION('',(#360,#361),#558);
#569=PRODUCT_DEFINITION_CONTEXT('3D Mechanical Parts',#575,'design');
#570=PRODUCT_DEFINITION('LT207022_','LT207022_',#572,#569);
#571=PRODUCT_DEFINITION('LT207022','LT207022',#573,#569);
#572=PRODUCT_DEFINITION_FORMATION('',$,#577);
#573=PRODUCT_DEFINITION_FORMATION('',$,#578);
#574=APPLICATION_PROTOCOL_DEFINITION('international standard',
'automotive_design',2009,#575);
#575=APPLICATION_CONTEXT(
'Core Data for Automotive Mechanical Design Process');
#576=PRODUCT_CONTEXT('3D Mechanical Parts',#575,'mechanical');
#577=PRODUCT('LT207022_','LT207022_',$,(#576));
#578=PRODUCT('LT207022','LT207022',$,(#576));
#579=PRESENTATION_STYLE_ASSIGNMENT((#580));
#580=SURFACE_STYLE_USAGE(.BOTH.,#581);
#581=SURFACE_SIDE_STYLE($,(#582));
#582=SURFACE_STYLE_FILL_AREA(#583);
#583=FILL_AREA_STYLE($,(#584));
#584=FILL_AREA_STYLE_COLOUR($,#585);
#585=COLOUR_RGB('',0.749019607843137,0.749019607843137,0.749019607843137);
ENDSEC;
END-ISO-10303-21;
