ISO-10303-21;
HEADER;
/* Generated by software containing ST-Developer
 * from STEP Tools, Inc. (www.steptools.com) 
 */

FILE_DESCRIPTION(
/* description */ (''),
/* implementation_level */ '2;1');

FILE_NAME(
/* name */ 
'C:\\Users\\mitarbeiter\\Desktop\\3D\\Imported Components\\AO000419\\A
O000419.stp',
/* time_stamp */ '2016-09-28T15:34:31+02:00',
/* author */ ('mitarbeiter'),
/* organization */ (''),
/* preprocessor_version */ 'ST-DEVELOPER v15.2',
/* originating_system */ 'Autodesk Inventor 2014',
/* authorisation */ '');

FILE_SCHEMA (('AUTOMOTIVE_DESIGN { 1 0 10303 214 3 1 1 }'));
ENDSEC;

DATA;
#10=SHAPE_REPRESENTATION_RELATIONSHIP('SRR','None',#530,#11);
#11=ADVANCED_BREP_SHAPE_REPRESENTATION($,(#306),#524);
#12=STYLED_ITEM($,(#539),#306);
#13=PLANE($,#340);
#14=PLANE($,#341);
#15=PLANE($,#342);
#16=PLANE($,#343);
#17=PLANE($,#344);
#18=PLANE($,#345);
#19=FACE_BOUND($,#62,.T.);
#20=FACE_BOUND($,#64,.T.);
#21=FACE_BOUND($,#66,.T.);
#22=FACE_BOUND($,#68,.T.);
#23=FACE_BOUND($,#70,.T.);
#24=FACE_BOUND($,#72,.T.);
#25=FACE_BOUND($,#74,.T.);
#26=FACE_BOUND($,#76,.T.);
#27=FACE_BOUND($,#79,.T.);
#28=FACE_BOUND($,#80,.T.);
#29=FACE_BOUND($,#81,.T.);
#30=FACE_BOUND($,#82,.T.);
#31=FACE_BOUND($,#87,.T.);
#32=FACE_BOUND($,#88,.T.);
#33=FACE_BOUND($,#89,.T.);
#34=FACE_BOUND($,#90,.T.);
#35=CONICAL_SURFACE($,#320,0.0013,0.785398163397454);
#36=CONICAL_SURFACE($,#325,0.0013,0.785398163397454);
#37=CONICAL_SURFACE($,#330,0.0013,0.785398163397454);
#38=CONICAL_SURFACE($,#335,0.0013,0.785398163397454);
#39=FACE_OUTER_BOUND($,#57,.T.);
#40=FACE_OUTER_BOUND($,#58,.T.);
#41=FACE_OUTER_BOUND($,#59,.T.);
#42=FACE_OUTER_BOUND($,#60,.T.);
#43=FACE_OUTER_BOUND($,#61,.T.);
#44=FACE_OUTER_BOUND($,#63,.T.);
#45=FACE_OUTER_BOUND($,#65,.T.);
#46=FACE_OUTER_BOUND($,#67,.T.);
#47=FACE_OUTER_BOUND($,#69,.T.);
#48=FACE_OUTER_BOUND($,#71,.T.);
#49=FACE_OUTER_BOUND($,#73,.T.);
#50=FACE_OUTER_BOUND($,#75,.T.);
#51=FACE_OUTER_BOUND($,#77,.T.);
#52=FACE_OUTER_BOUND($,#78,.T.);
#53=FACE_OUTER_BOUND($,#83,.T.);
#54=FACE_OUTER_BOUND($,#84,.T.);
#55=FACE_OUTER_BOUND($,#85,.T.);
#56=FACE_OUTER_BOUND($,#86,.T.);
#57=EDGE_LOOP($,(#207,#208,#209,#210));
#58=EDGE_LOOP($,(#211,#212,#213,#214));
#59=EDGE_LOOP($,(#215,#216,#217,#218));
#60=EDGE_LOOP($,(#219,#220,#221,#222));
#61=EDGE_LOOP($,(#223));
#62=EDGE_LOOP($,(#224));
#63=EDGE_LOOP($,(#225));
#64=EDGE_LOOP($,(#226));
#65=EDGE_LOOP($,(#227));
#66=EDGE_LOOP($,(#228));
#67=EDGE_LOOP($,(#229));
#68=EDGE_LOOP($,(#230));
#69=EDGE_LOOP($,(#231));
#70=EDGE_LOOP($,(#232));
#71=EDGE_LOOP($,(#233));
#72=EDGE_LOOP($,(#234));
#73=EDGE_LOOP($,(#235));
#74=EDGE_LOOP($,(#236));
#75=EDGE_LOOP($,(#237));
#76=EDGE_LOOP($,(#238));
#77=EDGE_LOOP($,(#239,#240,#241,#242));
#78=EDGE_LOOP($,(#243,#244,#245,#246,#247,#248,#249,#250));
#79=EDGE_LOOP($,(#251));
#80=EDGE_LOOP($,(#252));
#81=EDGE_LOOP($,(#253));
#82=EDGE_LOOP($,(#254));
#83=EDGE_LOOP($,(#255,#256,#257,#258));
#84=EDGE_LOOP($,(#259,#260,#261,#262));
#85=EDGE_LOOP($,(#263,#264,#265,#266));
#86=EDGE_LOOP($,(#267,#268,#269,#270,#271,#272,#273,#274));
#87=EDGE_LOOP($,(#275));
#88=EDGE_LOOP($,(#276));
#89=EDGE_LOOP($,(#277));
#90=EDGE_LOOP($,(#278));
#91=LINE($,#446,#107);
#92=LINE($,#449,#108);
#93=LINE($,#455,#109);
#94=LINE($,#458,#110);
#95=LINE($,#464,#111);
#96=LINE($,#467,#112);
#97=LINE($,#473,#113);
#98=LINE($,#476,#114);
#99=LINE($,#510,#115);
#100=LINE($,#511,#116);
#101=LINE($,#513,#117);
#102=LINE($,#514,#118);
#103=LINE($,#515,#119);
#104=LINE($,#517,#120);
#105=LINE($,#519,#121);
#106=LINE($,#521,#122);
#107=VECTOR($,#352,0.003);
#108=VECTOR($,#355,0.003);
#109=VECTOR($,#360,0.003);
#110=VECTOR($,#363,0.003);
#111=VECTOR($,#368,0.003);
#112=VECTOR($,#371,0.003);
#113=VECTOR($,#376,0.003);
#114=VECTOR($,#379,0.003);
#115=VECTOR($,#422,0.1198);
#116=VECTOR($,#423,0.1198);
#117=VECTOR($,#426,0.1198);
#118=VECTOR($,#427,0.1198);
#119=VECTOR($,#428,0.1198);
#120=VECTOR($,#431,0.1198);
#121=VECTOR($,#434,0.1198);
#122=VECTOR($,#437,0.1198);
#123=CIRCLE($,#309,0.0025);
#124=CIRCLE($,#310,0.0025);
#125=CIRCLE($,#312,0.0025);
#126=CIRCLE($,#313,0.0025);
#127=CIRCLE($,#315,0.0025);
#128=CIRCLE($,#316,0.0025);
#129=CIRCLE($,#318,0.0025);
#130=CIRCLE($,#319,0.0025);
#131=CIRCLE($,#321,0.0015);
#132=CIRCLE($,#322,0.0011);
#133=CIRCLE($,#324,0.0011);
#134=CIRCLE($,#326,0.0015);
#135=CIRCLE($,#327,0.0011);
#136=CIRCLE($,#329,0.0011);
#137=CIRCLE($,#331,0.0015);
#138=CIRCLE($,#332,0.0011);
#139=CIRCLE($,#334,0.0011);
#140=CIRCLE($,#336,0.0015);
#141=CIRCLE($,#337,0.0011);
#142=CIRCLE($,#339,0.0011);
#143=VERTEX_POINT($,#442);
#144=VERTEX_POINT($,#443);
#145=VERTEX_POINT($,#445);
#146=VERTEX_POINT($,#447);
#147=VERTEX_POINT($,#451);
#148=VERTEX_POINT($,#452);
#149=VERTEX_POINT($,#454);
#150=VERTEX_POINT($,#456);
#151=VERTEX_POINT($,#460);
#152=VERTEX_POINT($,#461);
#153=VERTEX_POINT($,#463);
#154=VERTEX_POINT($,#465);
#155=VERTEX_POINT($,#469);
#156=VERTEX_POINT($,#470);
#157=VERTEX_POINT($,#472);
#158=VERTEX_POINT($,#474);
#159=VERTEX_POINT($,#478);
#160=VERTEX_POINT($,#480);
#161=VERTEX_POINT($,#483);
#162=VERTEX_POINT($,#486);
#163=VERTEX_POINT($,#488);
#164=VERTEX_POINT($,#491);
#165=VERTEX_POINT($,#494);
#166=VERTEX_POINT($,#496);
#167=VERTEX_POINT($,#499);
#168=VERTEX_POINT($,#502);
#169=VERTEX_POINT($,#504);
#170=VERTEX_POINT($,#507);
#171=EDGE_CURVE($,#143,#144,#123,.T.);
#172=EDGE_CURVE($,#144,#145,#91,.T.);
#173=EDGE_CURVE($,#145,#146,#124,.T.);
#174=EDGE_CURVE($,#146,#143,#92,.T.);
#175=EDGE_CURVE($,#147,#148,#125,.T.);
#176=EDGE_CURVE($,#148,#149,#93,.T.);
#177=EDGE_CURVE($,#149,#150,#126,.T.);
#178=EDGE_CURVE($,#150,#147,#94,.T.);
#179=EDGE_CURVE($,#151,#152,#127,.T.);
#180=EDGE_CURVE($,#152,#153,#95,.T.);
#181=EDGE_CURVE($,#153,#154,#128,.T.);
#182=EDGE_CURVE($,#154,#151,#96,.T.);
#183=EDGE_CURVE($,#155,#156,#129,.T.);
#184=EDGE_CURVE($,#156,#157,#97,.T.);
#185=EDGE_CURVE($,#157,#158,#130,.T.);
#186=EDGE_CURVE($,#158,#155,#98,.T.);
#187=EDGE_CURVE($,#159,#159,#131,.T.);
#188=EDGE_CURVE($,#160,#160,#132,.T.);
#189=EDGE_CURVE($,#161,#161,#133,.T.);
#190=EDGE_CURVE($,#162,#162,#134,.T.);
#191=EDGE_CURVE($,#163,#163,#135,.T.);
#192=EDGE_CURVE($,#164,#164,#136,.T.);
#193=EDGE_CURVE($,#165,#165,#137,.T.);
#194=EDGE_CURVE($,#166,#166,#138,.T.);
#195=EDGE_CURVE($,#167,#167,#139,.T.);
#196=EDGE_CURVE($,#168,#168,#140,.T.);
#197=EDGE_CURVE($,#169,#169,#141,.T.);
#198=EDGE_CURVE($,#170,#170,#142,.T.);
#199=EDGE_CURVE($,#151,#156,#99,.T.);
#200=EDGE_CURVE($,#154,#157,#100,.T.);
#201=EDGE_CURVE($,#155,#148,#101,.T.);
#202=EDGE_CURVE($,#147,#144,#102,.T.);
#203=EDGE_CURVE($,#143,#152,#103,.T.);
#204=EDGE_CURVE($,#146,#153,#104,.T.);
#205=EDGE_CURVE($,#158,#149,#105,.T.);
#206=EDGE_CURVE($,#150,#145,#106,.T.);
#207=ORIENTED_EDGE($,*,*,#171,.T.);
#208=ORIENTED_EDGE($,*,*,#172,.T.);
#209=ORIENTED_EDGE($,*,*,#173,.T.);
#210=ORIENTED_EDGE($,*,*,#174,.T.);
#211=ORIENTED_EDGE($,*,*,#175,.T.);
#212=ORIENTED_EDGE($,*,*,#176,.T.);
#213=ORIENTED_EDGE($,*,*,#177,.T.);
#214=ORIENTED_EDGE($,*,*,#178,.T.);
#215=ORIENTED_EDGE($,*,*,#179,.T.);
#216=ORIENTED_EDGE($,*,*,#180,.T.);
#217=ORIENTED_EDGE($,*,*,#181,.T.);
#218=ORIENTED_EDGE($,*,*,#182,.T.);
#219=ORIENTED_EDGE($,*,*,#183,.T.);
#220=ORIENTED_EDGE($,*,*,#184,.T.);
#221=ORIENTED_EDGE($,*,*,#185,.T.);
#222=ORIENTED_EDGE($,*,*,#186,.T.);
#223=ORIENTED_EDGE($,*,*,#187,.F.);
#224=ORIENTED_EDGE($,*,*,#188,.T.);
#225=ORIENTED_EDGE($,*,*,#188,.F.);
#226=ORIENTED_EDGE($,*,*,#189,.F.);
#227=ORIENTED_EDGE($,*,*,#190,.F.);
#228=ORIENTED_EDGE($,*,*,#191,.T.);
#229=ORIENTED_EDGE($,*,*,#191,.F.);
#230=ORIENTED_EDGE($,*,*,#192,.F.);
#231=ORIENTED_EDGE($,*,*,#193,.F.);
#232=ORIENTED_EDGE($,*,*,#194,.T.);
#233=ORIENTED_EDGE($,*,*,#194,.F.);
#234=ORIENTED_EDGE($,*,*,#195,.F.);
#235=ORIENTED_EDGE($,*,*,#196,.F.);
#236=ORIENTED_EDGE($,*,*,#197,.T.);
#237=ORIENTED_EDGE($,*,*,#197,.F.);
#238=ORIENTED_EDGE($,*,*,#198,.F.);
#239=ORIENTED_EDGE($,*,*,#184,.F.);
#240=ORIENTED_EDGE($,*,*,#199,.F.);
#241=ORIENTED_EDGE($,*,*,#182,.F.);
#242=ORIENTED_EDGE($,*,*,#200,.T.);
#243=ORIENTED_EDGE($,*,*,#183,.F.);
#244=ORIENTED_EDGE($,*,*,#201,.T.);
#245=ORIENTED_EDGE($,*,*,#175,.F.);
#246=ORIENTED_EDGE($,*,*,#202,.T.);
#247=ORIENTED_EDGE($,*,*,#171,.F.);
#248=ORIENTED_EDGE($,*,*,#203,.T.);
#249=ORIENTED_EDGE($,*,*,#179,.F.);
#250=ORIENTED_EDGE($,*,*,#199,.T.);
#251=ORIENTED_EDGE($,*,*,#198,.T.);
#252=ORIENTED_EDGE($,*,*,#195,.T.);
#253=ORIENTED_EDGE($,*,*,#192,.T.);
#254=ORIENTED_EDGE($,*,*,#189,.T.);
#255=ORIENTED_EDGE($,*,*,#180,.F.);
#256=ORIENTED_EDGE($,*,*,#203,.F.);
#257=ORIENTED_EDGE($,*,*,#174,.F.);
#258=ORIENTED_EDGE($,*,*,#204,.T.);
#259=ORIENTED_EDGE($,*,*,#186,.F.);
#260=ORIENTED_EDGE($,*,*,#205,.T.);
#261=ORIENTED_EDGE($,*,*,#176,.F.);
#262=ORIENTED_EDGE($,*,*,#201,.F.);
#263=ORIENTED_EDGE($,*,*,#178,.F.);
#264=ORIENTED_EDGE($,*,*,#206,.T.);
#265=ORIENTED_EDGE($,*,*,#172,.F.);
#266=ORIENTED_EDGE($,*,*,#202,.F.);
#267=ORIENTED_EDGE($,*,*,#185,.F.);
#268=ORIENTED_EDGE($,*,*,#200,.F.);
#269=ORIENTED_EDGE($,*,*,#181,.F.);
#270=ORIENTED_EDGE($,*,*,#204,.F.);
#271=ORIENTED_EDGE($,*,*,#173,.F.);
#272=ORIENTED_EDGE($,*,*,#206,.F.);
#273=ORIENTED_EDGE($,*,*,#177,.F.);
#274=ORIENTED_EDGE($,*,*,#205,.F.);
#275=ORIENTED_EDGE($,*,*,#196,.T.);
#276=ORIENTED_EDGE($,*,*,#193,.T.);
#277=ORIENTED_EDGE($,*,*,#190,.T.);
#278=ORIENTED_EDGE($,*,*,#187,.T.);
#279=CYLINDRICAL_SURFACE($,#308,0.0025);
#280=CYLINDRICAL_SURFACE($,#311,0.0025);
#281=CYLINDRICAL_SURFACE($,#314,0.0025);
#282=CYLINDRICAL_SURFACE($,#317,0.0025);
#283=CYLINDRICAL_SURFACE($,#323,0.0011);
#284=CYLINDRICAL_SURFACE($,#328,0.0011);
#285=CYLINDRICAL_SURFACE($,#333,0.0011);
#286=CYLINDRICAL_SURFACE($,#338,0.0011);
#287=ADVANCED_FACE($,(#39),#279,.T.);
#288=ADVANCED_FACE($,(#40),#280,.T.);
#289=ADVANCED_FACE($,(#41),#281,.T.);
#290=ADVANCED_FACE($,(#42),#282,.T.);
#291=ADVANCED_FACE($,(#43,#19),#35,.F.);
#292=ADVANCED_FACE($,(#44,#20),#283,.F.);
#293=ADVANCED_FACE($,(#45,#21),#36,.F.);
#294=ADVANCED_FACE($,(#46,#22),#284,.F.);
#295=ADVANCED_FACE($,(#47,#23),#37,.F.);
#296=ADVANCED_FACE($,(#48,#24),#285,.F.);
#297=ADVANCED_FACE($,(#49,#25),#38,.F.);
#298=ADVANCED_FACE($,(#50,#26),#286,.F.);
#299=ADVANCED_FACE($,(#51),#13,.T.);
#300=ADVANCED_FACE($,(#52,#27,#28,#29,#30),#14,.F.);
#301=ADVANCED_FACE($,(#53),#15,.T.);
#302=ADVANCED_FACE($,(#54),#16,.T.);
#303=ADVANCED_FACE($,(#55),#17,.T.);
#304=ADVANCED_FACE($,(#56,#31,#32,#33,#34),#18,.T.);
#305=CLOSED_SHELL($,(#287,#288,#289,#290,#291,#292,#293,#294,#295,#296,
#297,#298,#299,#300,#301,#302,#303,#304));
#306=MANIFOLD_SOLID_BREP('1',#305);
#307=AXIS2_PLACEMENT_3D('placement',#440,#346,#347);
#308=AXIS2_PLACEMENT_3D($,#441,#348,#349);
#309=AXIS2_PLACEMENT_3D($,#444,#350,#351);
#310=AXIS2_PLACEMENT_3D($,#448,#353,#354);
#311=AXIS2_PLACEMENT_3D($,#450,#356,#357);
#312=AXIS2_PLACEMENT_3D($,#453,#358,#359);
#313=AXIS2_PLACEMENT_3D($,#457,#361,#362);
#314=AXIS2_PLACEMENT_3D($,#459,#364,#365);
#315=AXIS2_PLACEMENT_3D($,#462,#366,#367);
#316=AXIS2_PLACEMENT_3D($,#466,#369,#370);
#317=AXIS2_PLACEMENT_3D($,#468,#372,#373);
#318=AXIS2_PLACEMENT_3D($,#471,#374,#375);
#319=AXIS2_PLACEMENT_3D($,#475,#377,#378);
#320=AXIS2_PLACEMENT_3D($,#477,#380,#381);
#321=AXIS2_PLACEMENT_3D($,#479,#382,#383);
#322=AXIS2_PLACEMENT_3D($,#481,#384,#385);
#323=AXIS2_PLACEMENT_3D($,#482,#386,#387);
#324=AXIS2_PLACEMENT_3D($,#484,#388,#389);
#325=AXIS2_PLACEMENT_3D($,#485,#390,#391);
#326=AXIS2_PLACEMENT_3D($,#487,#392,#393);
#327=AXIS2_PLACEMENT_3D($,#489,#394,#395);
#328=AXIS2_PLACEMENT_3D($,#490,#396,#397);
#329=AXIS2_PLACEMENT_3D($,#492,#398,#399);
#330=AXIS2_PLACEMENT_3D($,#493,#400,#401);
#331=AXIS2_PLACEMENT_3D($,#495,#402,#403);
#332=AXIS2_PLACEMENT_3D($,#497,#404,#405);
#333=AXIS2_PLACEMENT_3D($,#498,#406,#407);
#334=AXIS2_PLACEMENT_3D($,#500,#408,#409);
#335=AXIS2_PLACEMENT_3D($,#501,#410,#411);
#336=AXIS2_PLACEMENT_3D($,#503,#412,#413);
#337=AXIS2_PLACEMENT_3D($,#505,#414,#415);
#338=AXIS2_PLACEMENT_3D($,#506,#416,#417);
#339=AXIS2_PLACEMENT_3D($,#508,#418,#419);
#340=AXIS2_PLACEMENT_3D($,#509,#420,#421);
#341=AXIS2_PLACEMENT_3D($,#512,#424,#425);
#342=AXIS2_PLACEMENT_3D($,#516,#429,#430);
#343=AXIS2_PLACEMENT_3D($,#518,#432,#433);
#344=AXIS2_PLACEMENT_3D($,#520,#435,#436);
#345=AXIS2_PLACEMENT_3D($,#522,#438,#439);
#346=DIRECTION('axis',(0.,0.,1.));
#347=DIRECTION('refdir',(1.,0.,0.));
#348=DIRECTION('center_axis',(-6.68191177523049E-048,7.39557098644699E-032,
1.));
#349=DIRECTION('ref_axis',(-0.707106781186547,-0.707106781186548,5.22945839526316E-032));
#350=DIRECTION('center_axis',(-6.68191177523049E-048,7.39557098644699E-032,
1.));
#351=DIRECTION('ref_axis',(-0.707106781186547,-0.707106781186548,5.22945839526316E-032));
#352=DIRECTION($,(2.56380329135515E-064,7.39557098644699E-032,1.));
#353=DIRECTION('center_axis',(6.68191177523049E-048,-7.39557098644699E-032,
-1.));
#354=DIRECTION('ref_axis',(-0.707106781186547,-0.707106781186548,5.22945839526316E-032));
#355=DIRECTION($,(-2.56380329135515E-064,-7.39557098644699E-032,-1.));
#356=DIRECTION('center_axis',(0.,7.39557098644699E-032,1.));
#357=DIRECTION('ref_axis',(0.707106781186547,-0.707106781186548,5.22945839526316E-032));
#358=DIRECTION('center_axis',(0.,7.39557098644699E-032,1.));
#359=DIRECTION('ref_axis',(0.707106781186547,-0.707106781186548,5.22945839526316E-032));
#360=DIRECTION($,(2.56380329135515E-064,7.39557098644699E-032,1.));
#361=DIRECTION('center_axis',(0.,-7.39557098644699E-032,-1.));
#362=DIRECTION('ref_axis',(0.707106781186547,-0.707106781186548,5.22945839526316E-032));
#363=DIRECTION($,(-2.56380329135515E-064,-7.39557098644699E-032,-1.));
#364=DIRECTION('center_axis',(0.,7.39557098644699E-032,1.));
#365=DIRECTION('ref_axis',(-0.707106781186547,0.707106781186548,-5.22945839526316E-032));
#366=DIRECTION('center_axis',(0.,7.39557098644699E-032,1.));
#367=DIRECTION('ref_axis',(-0.707106781186547,0.707106781186548,-5.22945839526316E-032));
#368=DIRECTION($,(2.56380329135515E-064,7.39557098644699E-032,1.));
#369=DIRECTION('center_axis',(0.,-7.39557098644699E-032,-1.));
#370=DIRECTION('ref_axis',(-0.707106781186547,0.707106781186548,-5.22945839526316E-032));
#371=DIRECTION($,(-2.56380329135515E-064,-7.39557098644699E-032,-1.));
#372=DIRECTION('center_axis',(0.,7.39557098644699E-032,1.));
#373=DIRECTION('ref_axis',(0.707106781186547,0.707106781186548,-5.22945839526316E-032));
#374=DIRECTION('center_axis',(0.,7.39557098644699E-032,1.));
#375=DIRECTION('ref_axis',(0.707106781186547,0.707106781186548,-5.22945839526316E-032));
#376=DIRECTION($,(2.56380329135515E-064,7.39557098644699E-032,1.));
#377=DIRECTION('center_axis',(0.,-7.39557098644699E-032,-1.));
#378=DIRECTION('ref_axis',(0.707106781186547,0.707106781186548,-5.22945839526316E-032));
#379=DIRECTION($,(-2.56380329135515E-064,-7.39557098644699E-032,-1.));
#380=DIRECTION('center_axis',(2.56380329135513E-064,7.39557098644699E-032,
1.));
#381=DIRECTION('ref_axis',(-1.,-3.46667389989703E-032,2.82018362049066E-063));
#382=DIRECTION('center_axis',(-2.56380329135513E-064,-7.39557098644699E-032,
-1.));
#383=DIRECTION('ref_axis',(-1.,-3.46667389989703E-032,2.82018362049066E-063));
#384=DIRECTION('center_axis',(-2.56380329135513E-064,-7.39557098644699E-032,
-1.));
#385=DIRECTION('ref_axis',(-1.,-3.46667389989703E-032,2.82018362049066E-063));
#386=DIRECTION('center_axis',(-2.56380329135513E-064,-7.39557098644699E-032,
-1.));
#387=DIRECTION('ref_axis',(-1.,-3.46667389989703E-032,2.82018362049066E-063));
#388=DIRECTION('center_axis',(2.56380329135513E-064,7.39557098644699E-032,
1.));
#389=DIRECTION('ref_axis',(-1.,-3.46667389989703E-032,2.82018362049066E-063));
#390=DIRECTION('center_axis',(0.,7.39557098644699E-032,1.));
#391=DIRECTION('ref_axis',(-1.,2.11833160275833E-014,-1.56662717410333E-045));
#392=DIRECTION('center_axis',(0.,-7.39557098644699E-032,-1.));
#393=DIRECTION('ref_axis',(-1.,2.11833160275833E-014,-1.56662717410333E-045));
#394=DIRECTION('center_axis',(-4.9047354058677E-061,-7.39557098644699E-032,
-1.));
#395=DIRECTION('ref_axis',(-1.,2.11833160275833E-014,-1.56662717410333E-045));
#396=DIRECTION('center_axis',(-2.56380329135513E-064,-7.39557098644699E-032,
-1.));
#397=DIRECTION('ref_axis',(-1.,-3.46667389989703E-032,2.82018362049066E-063));
#398=DIRECTION('center_axis',(2.56380329135513E-064,7.39557098644699E-032,
1.));
#399=DIRECTION('ref_axis',(-1.,-3.46667389989703E-032,2.82018362049066E-063));
#400=DIRECTION('center_axis',(2.56380329135513E-064,7.39557098644699E-032,
1.));
#401=DIRECTION('ref_axis',(-1.,-3.46667389989703E-032,2.82018362049066E-063));
#402=DIRECTION('center_axis',(-2.56380329135513E-064,-7.39557098644699E-032,
-1.));
#403=DIRECTION('ref_axis',(-1.,-3.46667389989703E-032,2.82018362049066E-063));
#404=DIRECTION('center_axis',(-2.56380329135513E-064,-7.39557098644699E-032,
-1.));
#405=DIRECTION('ref_axis',(-1.,-3.46667389989703E-032,2.82018362049066E-063));
#406=DIRECTION('center_axis',(-2.56380329135513E-064,-7.39557098644699E-032,
-1.));
#407=DIRECTION('ref_axis',(-1.,-3.46667389989703E-032,2.82018362049066E-063));
#408=DIRECTION('center_axis',(2.56380329135513E-064,7.39557098644699E-032,
1.));
#409=DIRECTION('ref_axis',(-1.,-3.46667389989703E-032,2.82018362049066E-063));
#410=DIRECTION('center_axis',(0.,7.39557098644699E-032,1.));
#411=DIRECTION('ref_axis',(-1.,1.05916580137919E-014,-7.83313587051681E-046));
#412=DIRECTION('center_axis',(1.31882885357776E-061,-7.39557098644699E-032,
-1.));
#413=DIRECTION('ref_axis',(-1.,1.05916580137919E-014,-7.83313587051682E-046));
#414=DIRECTION('center_axis',(-1.22618385146693E-061,-7.39557098644699E-032,
-1.));
#415=DIRECTION('ref_axis',(-1.,1.05916580137919E-014,-7.83313587051681E-046));
#416=DIRECTION('center_axis',(-2.56380329135513E-064,-7.39557098644699E-032,
-1.));
#417=DIRECTION('ref_axis',(-1.,-3.46667389989703E-032,2.82018362049066E-063));
#418=DIRECTION('center_axis',(2.56380329135513E-064,7.39557098644699E-032,
1.));
#419=DIRECTION('ref_axis',(-1.,-3.46667389989703E-032,2.82018362049066E-063));
#420=DIRECTION('center_axis',(1.04000216996911E-032,1.,-7.39557098644699E-032));
#421=DIRECTION('ref_axis',(-1.,0.,0.));
#422=DIRECTION($,(1.,3.46667389989703E-032,-8.54601097118382E-064));
#423=DIRECTION($,(1.,3.46667389989703E-032,-8.54601097118382E-064));
#424=DIRECTION('center_axis',(2.56380329135514E-064,7.39557098644699E-032,
1.));
#425=DIRECTION('ref_axis',(1.,3.46667389989703E-032,0.));
#426=DIRECTION($,(-1.04000216996911E-032,-1.,7.39557098644699E-032));
#427=DIRECTION($,(-1.,-3.46667389989703E-032,8.54601097118382E-064));
#428=DIRECTION($,(1.04000216996911E-032,1.,-7.39557098644699E-032));
#429=DIRECTION('center_axis',(-1.,-3.46667389989702E-032,8.5460109711838E-064));
#430=DIRECTION('ref_axis',(0.,-1.,0.));
#431=DIRECTION($,(1.04000216996911E-032,1.,-7.39557098644699E-032));
#432=DIRECTION('center_axis',(1.,3.46667389989702E-032,-8.5460109711838E-064));
#433=DIRECTION('ref_axis',(0.,1.,0.));
#434=DIRECTION($,(-1.04000216996911E-032,-1.,7.39557098644699E-032));
#435=DIRECTION('center_axis',(-1.04000216996911E-032,-1.,7.39557098644699E-032));
#436=DIRECTION('ref_axis',(1.,0.,0.));
#437=DIRECTION($,(-1.,-3.46667389989703E-032,8.54601097118382E-064));
#438=DIRECTION('center_axis',(2.56380329135514E-064,7.39557098644699E-032,
1.));
#439=DIRECTION('ref_axis',(1.,3.46667389989703E-032,0.));
#440=CARTESIAN_POINT('',(0.,0.,0.));
#441=CARTESIAN_POINT('Origin',(-0.05985,-0.05985,-0.0613499999999999));
#442=CARTESIAN_POINT('',(-0.06235,-0.05985,-0.0613499999999999));
#443=CARTESIAN_POINT('',(-0.05985,-0.06235,-0.0613499999999999));
#444=CARTESIAN_POINT('Origin',(-0.05985,-0.05985,-0.0613499999999999));
#445=CARTESIAN_POINT('',(-0.05985,-0.06235,-0.0583499999999999));
#446=CARTESIAN_POINT($,(-0.05985,-0.06235,-0.0613499999999999));
#447=CARTESIAN_POINT('',(-0.06235,-0.05985,-0.0583499999999999));
#448=CARTESIAN_POINT('Origin',(-0.05985,-0.05985,-0.0583499999999999));
#449=CARTESIAN_POINT($,(-0.06235,-0.05985,-0.0613499999999999));
#450=CARTESIAN_POINT('Origin',(0.05995,-0.05985,-0.0613499999999999));
#451=CARTESIAN_POINT('',(0.05995,-0.06235,-0.0613499999999999));
#452=CARTESIAN_POINT('',(0.06245,-0.05985,-0.0613499999999999));
#453=CARTESIAN_POINT('Origin',(0.05995,-0.05985,-0.0613499999999999));
#454=CARTESIAN_POINT('',(0.06245,-0.05985,-0.0583499999999999));
#455=CARTESIAN_POINT($,(0.06245,-0.05985,-0.0613499999999999));
#456=CARTESIAN_POINT('',(0.05995,-0.06235,-0.0583499999999999));
#457=CARTESIAN_POINT('Origin',(0.05995,-0.05985,-0.0583499999999999));
#458=CARTESIAN_POINT($,(0.05995,-0.06235,-0.0613499999999999));
#459=CARTESIAN_POINT('Origin',(-0.05985,0.05995,-0.0613499999999999));
#460=CARTESIAN_POINT('',(-0.05985,0.06245,-0.0613499999999999));
#461=CARTESIAN_POINT('',(-0.06235,0.05995,-0.0613499999999999));
#462=CARTESIAN_POINT('Origin',(-0.05985,0.05995,-0.0613499999999999));
#463=CARTESIAN_POINT('',(-0.06235,0.05995,-0.0583499999999999));
#464=CARTESIAN_POINT($,(-0.06235,0.05995,-0.0613499999999999));
#465=CARTESIAN_POINT('',(-0.05985,0.06245,-0.0583499999999999));
#466=CARTESIAN_POINT('Origin',(-0.05985,0.05995,-0.0583499999999999));
#467=CARTESIAN_POINT($,(-0.05985,0.06245,-0.0613499999999999));
#468=CARTESIAN_POINT('Origin',(0.05995,0.05995,-0.0613499999999999));
#469=CARTESIAN_POINT('',(0.06245,0.05995,-0.0613499999999999));
#470=CARTESIAN_POINT('',(0.05995,0.06245,-0.0613499999999999));
#471=CARTESIAN_POINT('Origin',(0.05995,0.05995,-0.0613499999999999));
#472=CARTESIAN_POINT('',(0.05995,0.06245,-0.0583499999999999));
#473=CARTESIAN_POINT($,(0.05995,0.06245,-0.0613499999999999));
#474=CARTESIAN_POINT('',(0.06245,0.05995,-0.0583499999999999));
#475=CARTESIAN_POINT('Origin',(0.05995,0.05995,-0.0583499999999999));
#476=CARTESIAN_POINT($,(0.06245,0.05995,-0.0613499999999999));
#477=CARTESIAN_POINT('Origin',(-0.05995,0.06005,-0.0585499999999999));
#478=CARTESIAN_POINT('',(-0.05845,0.06005,-0.0583499999999999));
#479=CARTESIAN_POINT('Origin',(-0.05995,0.06005,-0.0583499999999999));
#480=CARTESIAN_POINT('',(-0.05885,0.06005,-0.05875));
#481=CARTESIAN_POINT('Origin',(-0.05995,0.06005,-0.0587499999999999));
#482=CARTESIAN_POINT('Origin',(-0.05995,0.06005,-0.0587499999999999));
#483=CARTESIAN_POINT('',(-0.05885,0.06005,-0.0613499999999999));
#484=CARTESIAN_POINT('Origin',(-0.05995,0.06005,-0.0613499999999999));
#485=CARTESIAN_POINT('Origin',(0.06005,-0.05995,-0.0585499999999999));
#486=CARTESIAN_POINT('',(0.06155,-0.05995,-0.0583499999999999));
#487=CARTESIAN_POINT('Origin',(0.06005,-0.05995,-0.0583499999999999));
#488=CARTESIAN_POINT('',(0.06115,-0.05995,-0.05875));
#489=CARTESIAN_POINT('Origin',(0.06005,-0.05995,-0.0587499999999999));
#490=CARTESIAN_POINT('Origin',(0.06005,-0.05995,-0.0587499999999999));
#491=CARTESIAN_POINT('',(0.06115,-0.05995,-0.0613499999999999));
#492=CARTESIAN_POINT('Origin',(0.06005,-0.05995,-0.0613499999999999));
#493=CARTESIAN_POINT('Origin',(0.06005,0.06005,-0.0585499999999999));
#494=CARTESIAN_POINT('',(0.06155,0.06005,-0.0583499999999999));
#495=CARTESIAN_POINT('Origin',(0.06005,0.06005,-0.0583499999999999));
#496=CARTESIAN_POINT('',(0.06115,0.06005,-0.05875));
#497=CARTESIAN_POINT('Origin',(0.06005,0.06005,-0.0587499999999999));
#498=CARTESIAN_POINT('Origin',(0.06005,0.06005,-0.0587499999999999));
#499=CARTESIAN_POINT('',(0.06115,0.06005,-0.0613499999999999));
#500=CARTESIAN_POINT('Origin',(0.06005,0.06005,-0.0613499999999999));
#501=CARTESIAN_POINT('Origin',(-0.05995,-0.05995,-0.0585499999999999));
#502=CARTESIAN_POINT('',(-0.05845,-0.05995,-0.0583499999999999));
#503=CARTESIAN_POINT('Origin',(-0.05995,-0.05995,-0.0583499999999999));
#504=CARTESIAN_POINT('',(-0.05885,-0.05995,-0.05875));
#505=CARTESIAN_POINT('Origin',(-0.05995,-0.05995,-0.0587499999999999));
#506=CARTESIAN_POINT('Origin',(-0.05995,-0.05995,-0.0587499999999999));
#507=CARTESIAN_POINT('',(-0.05885,-0.05995,-0.0613499999999999));
#508=CARTESIAN_POINT('Origin',(-0.05995,-0.05995,-0.0613499999999999));
#509=CARTESIAN_POINT('Origin',(3.46944695195362E-018,0.06245,-0.0613499999999999));
#510=CARTESIAN_POINT($,(3.46944695195362E-018,0.06245,-0.0613499999999999));
#511=CARTESIAN_POINT($,(3.46944695195362E-018,0.06245,-0.0583499999999999));
#512=CARTESIAN_POINT('Origin',(3.46944695195361E-018,-3.02207682409512E-033,
-0.0613499999999999));
#513=CARTESIAN_POINT($,(0.06245,-8.57138973609427E-034,-0.0613499999999999));
#514=CARTESIAN_POINT($,(0.0611,-0.06235,-0.0613499999999999));
#515=CARTESIAN_POINT($,(-0.06235,-0.0611,-0.0613499999999999));
#516=CARTESIAN_POINT('Origin',(-0.06235,-5.18354800068091E-033,-0.0613499999999999));
#517=CARTESIAN_POINT($,(-0.06235,-0.0611,-0.0583499999999999));
#518=CARTESIAN_POINT('Origin',(0.06245,-8.57138973609427E-034,-0.0613499999999999));
#519=CARTESIAN_POINT($,(0.06245,-6.35271844016017E-034,-0.0583499999999999));
#520=CARTESIAN_POINT('Origin',(3.46944695195361E-018,-0.06235,-0.0613499999999999));
#521=CARTESIAN_POINT($,(0.0611,-0.06235,-0.0583499999999999));
#522=CARTESIAN_POINT('Origin',(3.46944695195361E-018,-2.80020969450171E-033,
-0.0583499999999999));
#523=UNCERTAINTY_MEASURE_WITH_UNIT(LENGTH_MEASURE(1.E-005),#525,
'DISTANCE_ACCURACY_VALUE',
'Maximum model space distance between geometric entities at asserted c
onnectivities');
#524=(
GEOMETRIC_REPRESENTATION_CONTEXT(3)
GLOBAL_UNCERTAINTY_ASSIGNED_CONTEXT((#523))
GLOBAL_UNIT_ASSIGNED_CONTEXT((#525,#527,#526))
REPRESENTATION_CONTEXT('','3D')
);
#525=(
LENGTH_UNIT()
NAMED_UNIT(*)
SI_UNIT($,.METRE.)
);
#526=(
NAMED_UNIT(*)
SI_UNIT($,.STERADIAN.)
SOLID_ANGLE_UNIT()
);
#527=(
NAMED_UNIT(*)
PLANE_ANGLE_UNIT()
SI_UNIT($,.RADIAN.)
);
#528=SHAPE_DEFINITION_REPRESENTATION(#529,#530);
#529=PRODUCT_DEFINITION_SHAPE('',$,#532);
#530=SHAPE_REPRESENTATION('',(#307),#524);
#531=PRODUCT_DEFINITION_CONTEXT('3D Mechanical Parts',#535,'design');
#532=PRODUCT_DEFINITION('AO000419','AO000419',#533,#531);
#533=PRODUCT_DEFINITION_FORMATION('',$,#537);
#534=APPLICATION_PROTOCOL_DEFINITION('international standard',
'automotive_design',2009,#535);
#535=APPLICATION_CONTEXT(
'Core Data for Automotive Mechanical Design Process');
#536=PRODUCT_CONTEXT('3D Mechanical Parts',#535,'mechanical');
#537=PRODUCT('AO000419','AO000419',$,(#536));
#538=PRESENTATION_STYLE_ASSIGNMENT((#540));
#539=PRESENTATION_STYLE_ASSIGNMENT((#541));
#540=SURFACE_STYLE_USAGE(.BOTH.,#542);
#541=SURFACE_STYLE_USAGE(.BOTH.,#543);
#542=SURFACE_SIDE_STYLE($,(#544));
#543=SURFACE_SIDE_STYLE($,(#545));
#544=SURFACE_STYLE_FILL_AREA(#546);
#545=SURFACE_STYLE_FILL_AREA(#547);
#546=FILL_AREA_STYLE($,(#548));
#547=FILL_AREA_STYLE($,(#549));
#548=FILL_AREA_STYLE_COLOUR($,#550);
#549=FILL_AREA_STYLE_COLOUR($,#551);
#550=COLOUR_RGB('',0.749019607843137,0.749019607843137,0.749019607843137);
#551=COLOUR_RGB('',0.752941176470588,0.752941176470588,0.752941176470588);
ENDSEC;
END-ISO-10303-21;
