ISO-10303-21;
HEADER;
/* Generated by software containing ST-Developer
 * from STEP Tools, Inc. (www.steptools.com) 
 */

FILE_DESCRIPTION(
/* description */ (''),
/* implementation_level */ '2;1');

FILE_NAME(
/* name */ 
'C:\\Users\\mitarbeiter\\Desktop\\3D\\Imported Components\\IB06A425\\I
B06A425.stp',
/* time_stamp */ '2016-09-29T15:31:26+02:00',
/* author */ ('mitarbeiter'),
/* organization */ (''),
/* preprocessor_version */ 'ST-DEVELOPER v15.2',
/* originating_system */ 'Autodesk Inventor 2014',
/* authorisation */ '');

FILE_SCHEMA (('AUTOMOTIVE_DESIGN { 1 0 10303 214 3 1 1 }'));
ENDSEC;

DATA;
#10=SHAPE_REPRESENTATION_RELATIONSHIP('SRR','None',#198,#11);
#11=ADVANCED_BREP_SHAPE_REPRESENTATION($,(#92),#192);
#12=STYLED_ITEM($,(#206),#92);
#13=PLANE($,#102);
#14=PLANE($,#103);
#15=PLANE($,#104);
#16=PLANE($,#105);
#17=FACE_BOUND($,#33,.T.);
#18=FACE_BOUND($,#34,.T.);
#19=FACE_BOUND($,#36,.T.);
#20=FACE_BOUND($,#38,.T.);
#21=FACE_BOUND($,#42,.T.);
#22=B_SPLINE_CURVE_WITH_KNOTS($,3,(#138,#139,#140,#141,#142,#143,#144,#145,
#146,#147,#148,#149,#150,#151,#152,#153,#154,#155),.UNSPECIFIED.,.F.,.F.,
(4,2,2,2,2,2,2,2,4),(-0.810280873881633,-0.742887391870767,-0.675493909859902,
-0.607840579557162,-0.540187249254422,-0.472533918951682,-0.404880588648942,
-0.337487106638076,-0.270093624627211),.UNSPECIFIED.);
#23=B_SPLINE_CURVE_WITH_KNOTS($,3,(#157,#158,#159,#160,#161,#162,#163,#164,
#165,#166),.UNSPECIFIED.,.F.,.F.,(4,2,2,2,4),(-0.270093624627211,-0.202700142616346,
-0.13530666060548,-0.06765333030274,0.),.UNSPECIFIED.);
#24=B_SPLINE_CURVE_WITH_KNOTS($,3,(#167,#168,#169,#170,#171,#172,#173,#174,
#175,#176),.UNSPECIFIED.,.F.,.F.,(4,2,2,2,4),(-1.08037449850884,-1.0127211682061,
-0.945067837903364,-0.877674355892498,-0.810280873881633),.UNSPECIFIED.);
#25=FACE_OUTER_BOUND($,#32,.T.);
#26=FACE_OUTER_BOUND($,#35,.T.);
#27=FACE_OUTER_BOUND($,#37,.T.);
#28=FACE_OUTER_BOUND($,#39,.T.);
#29=FACE_OUTER_BOUND($,#40,.T.);
#30=FACE_OUTER_BOUND($,#41,.T.);
#31=FACE_OUTER_BOUND($,#43,.T.);
#32=EDGE_LOOP($,(#65));
#33=EDGE_LOOP($,(#66,#67,#68));
#34=EDGE_LOOP($,(#69));
#35=EDGE_LOOP($,(#70));
#36=EDGE_LOOP($,(#71));
#37=EDGE_LOOP($,(#72,#73,#74));
#38=EDGE_LOOP($,(#75));
#39=EDGE_LOOP($,(#76));
#40=EDGE_LOOP($,(#77));
#41=EDGE_LOOP($,(#78));
#42=EDGE_LOOP($,(#79));
#43=EDGE_LOOP($,(#80));
#44=CIRCLE($,#95,3.25);
#45=CIRCLE($,#96,3.25);
#46=CIRCLE($,#98,3.2);
#47=CIRCLE($,#99,3.2);
#48=CIRCLE($,#101,1.75);
#49=VERTEX_POINT($,#134);
#50=VERTEX_POINT($,#136);
#51=VERTEX_POINT($,#137);
#52=VERTEX_POINT($,#156);
#53=VERTEX_POINT($,#177);
#54=VERTEX_POINT($,#180);
#55=VERTEX_POINT($,#182);
#56=VERTEX_POINT($,#185);
#57=EDGE_CURVE($,#49,#49,#44,.T.);
#58=EDGE_CURVE($,#50,#51,#22,.T.);
#59=EDGE_CURVE($,#51,#52,#23,.T.);
#60=EDGE_CURVE($,#52,#50,#24,.T.);
#61=EDGE_CURVE($,#53,#53,#45,.T.);
#62=EDGE_CURVE($,#54,#54,#46,.T.);
#63=EDGE_CURVE($,#55,#55,#47,.T.);
#64=EDGE_CURVE($,#56,#56,#48,.T.);
#65=ORIENTED_EDGE($,*,*,#57,.F.);
#66=ORIENTED_EDGE($,*,*,#58,.T.);
#67=ORIENTED_EDGE($,*,*,#59,.T.);
#68=ORIENTED_EDGE($,*,*,#60,.T.);
#69=ORIENTED_EDGE($,*,*,#61,.F.);
#70=ORIENTED_EDGE($,*,*,#62,.F.);
#71=ORIENTED_EDGE($,*,*,#63,.F.);
#72=ORIENTED_EDGE($,*,*,#60,.F.);
#73=ORIENTED_EDGE($,*,*,#59,.F.);
#74=ORIENTED_EDGE($,*,*,#58,.F.);
#75=ORIENTED_EDGE($,*,*,#64,.F.);
#76=ORIENTED_EDGE($,*,*,#64,.T.);
#77=ORIENTED_EDGE($,*,*,#63,.T.);
#78=ORIENTED_EDGE($,*,*,#61,.T.);
#79=ORIENTED_EDGE($,*,*,#62,.T.);
#80=ORIENTED_EDGE($,*,*,#57,.T.);
#81=CYLINDRICAL_SURFACE($,#94,3.25);
#82=CYLINDRICAL_SURFACE($,#97,3.2);
#83=CYLINDRICAL_SURFACE($,#100,1.75);
#84=ADVANCED_FACE($,(#25,#17,#18),#81,.T.);
#85=ADVANCED_FACE($,(#26,#19),#82,.T.);
#86=ADVANCED_FACE($,(#27,#20),#83,.T.);
#87=ADVANCED_FACE($,(#28),#13,.T.);
#88=ADVANCED_FACE($,(#29),#14,.T.);
#89=ADVANCED_FACE($,(#30,#21),#15,.T.);
#90=ADVANCED_FACE($,(#31),#16,.T.);
#91=CLOSED_SHELL($,(#84,#85,#86,#87,#88,#89,#90));
#92=MANIFOLD_SOLID_BREP('1',#91);
#93=AXIS2_PLACEMENT_3D('placement',#132,#106,#107);
#94=AXIS2_PLACEMENT_3D($,#133,#108,#109);
#95=AXIS2_PLACEMENT_3D($,#135,#110,#111);
#96=AXIS2_PLACEMENT_3D($,#178,#112,#113);
#97=AXIS2_PLACEMENT_3D($,#179,#114,#115);
#98=AXIS2_PLACEMENT_3D($,#181,#116,#117);
#99=AXIS2_PLACEMENT_3D($,#183,#118,#119);
#100=AXIS2_PLACEMENT_3D($,#184,#120,#121);
#101=AXIS2_PLACEMENT_3D($,#186,#122,#123);
#102=AXIS2_PLACEMENT_3D($,#187,#124,#125);
#103=AXIS2_PLACEMENT_3D($,#188,#126,#127);
#104=AXIS2_PLACEMENT_3D($,#189,#128,#129);
#105=AXIS2_PLACEMENT_3D($,#190,#130,#131);
#106=DIRECTION('axis',(0.,0.,1.));
#107=DIRECTION('refdir',(1.,0.,0.));
#108=DIRECTION('center_axis',(1.,-6.12303176911189E-017,0.));
#109=DIRECTION('ref_axis',(6.12303176911189E-017,1.,0.));
#110=DIRECTION('center_axis',(-1.,6.12303176911189E-017,0.));
#111=DIRECTION('ref_axis',(6.12303176911189E-017,1.,0.));
#112=DIRECTION('center_axis',(1.,-6.12303176911189E-017,0.));
#113=DIRECTION('ref_axis',(6.12303176911189E-017,1.,0.));
#114=DIRECTION('center_axis',(1.,-6.12303176911189E-017,0.));
#115=DIRECTION('ref_axis',(6.12303176911189E-017,1.,0.));
#116=DIRECTION('center_axis',(-1.,6.12303176911189E-017,0.));
#117=DIRECTION('ref_axis',(6.12303176911189E-017,1.,0.));
#118=DIRECTION('center_axis',(1.,-6.12303176911189E-017,0.));
#119=DIRECTION('ref_axis',(6.12303176911189E-017,1.,0.));
#120=DIRECTION('center_axis',(0.,-1.,0.));
#121=DIRECTION('ref_axis',(1.,0.,0.));
#122=DIRECTION('center_axis',(0.,-1.,0.));
#123=DIRECTION('ref_axis',(1.,0.,0.));
#124=DIRECTION('center_axis',(0.,-1.,0.));
#125=DIRECTION('ref_axis',(-1.,0.,0.));
#126=DIRECTION('center_axis',(1.,-6.12303176911189E-017,0.));
#127=DIRECTION('ref_axis',(0.,-1.,0.));
#128=DIRECTION('center_axis',(1.,-6.12303176911189E-017,0.));
#129=DIRECTION('ref_axis',(0.,-1.,0.));
#130=DIRECTION('center_axis',(-1.,6.12303176911189E-017,0.));
#131=DIRECTION('ref_axis',(6.12303176911189E-017,1.,0.));
#132=CARTESIAN_POINT('',(0.,0.,0.));
#133=CARTESIAN_POINT('Origin',(7.5,5.2045770037451E-016,0.));
#134=CARTESIAN_POINT('',(-1.9899057615866E-016,-3.25,-3.97997064992273E-016));
#135=CARTESIAN_POINT('Origin',(0.,9.79685083057902E-016,0.));
#136=CARTESIAN_POINT('',(11.,-3.25,-2.11236464518066E-016));
#137=CARTESIAN_POINT('',(14.5,-3.25,2.94503191364953E-016));
#138=CARTESIAN_POINT('Ctrl Pts',(11.,-3.25,-1.90819582357449E-016));
#139=CARTESIAN_POINT('Ctrl Pts',(11.,-3.25,0.224644940036218));
#140=CARTESIAN_POINT('Ctrl Pts',(11.0458505125527,-3.22460917623876,0.461205187608393));
#141=CARTESIAN_POINT('Ctrl Pts',(11.2259904082397,-3.13314286679268,0.89119599522515));
#142=CARTESIAN_POINT('Ctrl Pts',(11.3600484023607,-3.06800400321577,1.0849221365136));
#143=CARTESIAN_POINT('Ctrl Pts',(11.6656659128205,-2.94216149890877,1.39053964697346));
#144=CARTESIAN_POINT('Ctrl Pts',(11.8592060823791,-2.87230233844429,1.52417358319434));
#145=CARTESIAN_POINT('Ctrl Pts',(12.2883323907041,-2.76943074473278,1.70396021487235));
#146=CARTESIAN_POINT('Ctrl Pts',(12.5244888989909,-2.73861278752583,1.75));
#147=CARTESIAN_POINT('Ctrl Pts',(12.9755111010091,-2.73861278752583,1.75));
#148=CARTESIAN_POINT('Ctrl Pts',(13.2116676092959,-2.76943074473278,1.70396021487235));
#149=CARTESIAN_POINT('Ctrl Pts',(13.6407939176209,-2.87230233844429,1.52417358319434));
#150=CARTESIAN_POINT('Ctrl Pts',(13.8343340871795,-2.94216149890877,1.39053964697346));
#151=CARTESIAN_POINT('Ctrl Pts',(14.1399515976393,-3.06800400321577,1.0849221365136));
#152=CARTESIAN_POINT('Ctrl Pts',(14.2740095917603,-3.13314286679268,0.891195995225149));
#153=CARTESIAN_POINT('Ctrl Pts',(14.4541494874473,-3.22460917623876,0.461205187608392));
#154=CARTESIAN_POINT('Ctrl Pts',(14.5,-3.25,0.224644940036218));
#155=CARTESIAN_POINT('Ctrl Pts',(14.5,-3.25,4.68375338513738E-016));
#156=CARTESIAN_POINT('',(12.75,-2.73861278752583,-1.75));
#157=CARTESIAN_POINT('Ctrl Pts',(14.5,-3.25,4.68375338513738E-016));
#158=CARTESIAN_POINT('Ctrl Pts',(14.5,-3.25,-0.224644940036218));
#159=CARTESIAN_POINT('Ctrl Pts',(14.4541494874473,-3.22460917623876,-0.461205187608392));
#160=CARTESIAN_POINT('Ctrl Pts',(14.2740095917603,-3.13314286679268,-0.89119599522515));
#161=CARTESIAN_POINT('Ctrl Pts',(14.1399515976393,-3.06800400321577,-1.0849221365136));
#162=CARTESIAN_POINT('Ctrl Pts',(13.8343340871795,-2.94216149890877,-1.39053964697346));
#163=CARTESIAN_POINT('Ctrl Pts',(13.6407939176209,-2.87230233844429,-1.52417358319434));
#164=CARTESIAN_POINT('Ctrl Pts',(13.2116676092959,-2.76943074473278,-1.70396021487235));
#165=CARTESIAN_POINT('Ctrl Pts',(12.9755111010091,-2.73861278752583,-1.75));
#166=CARTESIAN_POINT('Ctrl Pts',(12.75,-2.73861278752583,-1.75));
#167=CARTESIAN_POINT('Ctrl Pts',(12.75,-2.73861278752583,-1.75));
#168=CARTESIAN_POINT('Ctrl Pts',(12.5244888989909,-2.73861278752583,-1.75));
#169=CARTESIAN_POINT('Ctrl Pts',(12.2883323907041,-2.76943074473278,-1.70396021487235));
#170=CARTESIAN_POINT('Ctrl Pts',(11.8592060823791,-2.87230233844429,-1.52417358319434));
#171=CARTESIAN_POINT('Ctrl Pts',(11.6656659128205,-2.94216149890877,-1.39053964697346));
#172=CARTESIAN_POINT('Ctrl Pts',(11.3600484023607,-3.06800400321577,-1.0849221365136));
#173=CARTESIAN_POINT('Ctrl Pts',(11.2259904082397,-3.13314286679268,-0.891195995225151));
#174=CARTESIAN_POINT('Ctrl Pts',(11.0458505125527,-3.22460917623876,-0.461205187608393));
#175=CARTESIAN_POINT('Ctrl Pts',(11.,-3.25,-0.224644940036219));
#176=CARTESIAN_POINT('Ctrl Pts',(11.,-3.25,-1.90819582357449E-016));
#177=CARTESIAN_POINT('',(15.,-3.25,-3.97997064992273E-016));
#178=CARTESIAN_POINT('Origin',(15.,6.12303176911189E-017,0.));
#179=CARTESIAN_POINT('Origin',(15.5,3.06151588455594E-017,0.));
#180=CARTESIAN_POINT('',(15.,-3.2,-3.91874033223161E-016));
#181=CARTESIAN_POINT('Origin',(15.,6.12303176911189E-017,0.));
#182=CARTESIAN_POINT('',(16.,-3.2,-3.91874033223161E-016));
#183=CARTESIAN_POINT('Origin',(16.,0.,0.));
#184=CARTESIAN_POINT('Origin',(12.75,-15.,0.));
#185=CARTESIAN_POINT('',(11.,-30.,-2.14306111918916E-016));
#186=CARTESIAN_POINT('Origin',(12.75,-30.,0.));
#187=CARTESIAN_POINT('Origin',(12.75,-30.,0.));
#188=CARTESIAN_POINT('Origin',(16.,0.,0.));
#189=CARTESIAN_POINT('Origin',(15.,6.12303176911189E-017,0.));
#190=CARTESIAN_POINT('Origin',(0.,9.79685083057902E-016,0.));
#191=UNCERTAINTY_MEASURE_WITH_UNIT(LENGTH_MEASURE(0.01),#193,
'DISTANCE_ACCURACY_VALUE',
'Maximum model space distance between geometric entities at asserted c
onnectivities');
#192=(
GEOMETRIC_REPRESENTATION_CONTEXT(3)
GLOBAL_UNCERTAINTY_ASSIGNED_CONTEXT((#191))
GLOBAL_UNIT_ASSIGNED_CONTEXT((#193,#195,#194))
REPRESENTATION_CONTEXT('','3D')
);
#193=(
LENGTH_UNIT()
NAMED_UNIT(*)
SI_UNIT(.MILLI.,.METRE.)
);
#194=(
NAMED_UNIT(*)
SI_UNIT($,.STERADIAN.)
SOLID_ANGLE_UNIT()
);
#195=(
NAMED_UNIT(*)
PLANE_ANGLE_UNIT()
SI_UNIT($,.RADIAN.)
);
#196=SHAPE_DEFINITION_REPRESENTATION(#197,#198);
#197=PRODUCT_DEFINITION_SHAPE('',$,#200);
#198=SHAPE_REPRESENTATION('',(#93),#192);
#199=PRODUCT_DEFINITION_CONTEXT('3D Mechanical Parts',#203,'design');
#200=PRODUCT_DEFINITION('IB06A425','IB06A425',#201,#199);
#201=PRODUCT_DEFINITION_FORMATION('',$,#205);
#202=APPLICATION_PROTOCOL_DEFINITION('international standard',
'automotive_design',2009,#203);
#203=APPLICATION_CONTEXT(
'Core Data for Automotive Mechanical Design Process');
#204=PRODUCT_CONTEXT('3D Mechanical Parts',#203,'mechanical');
#205=PRODUCT('IB06A425','IB06A425',$,(#204));
#206=PRESENTATION_STYLE_ASSIGNMENT((#207));
#207=SURFACE_STYLE_USAGE(.BOTH.,#208);
#208=SURFACE_SIDE_STYLE($,(#209));
#209=SURFACE_STYLE_FILL_AREA(#210);
#210=FILL_AREA_STYLE($,(#211));
#211=FILL_AREA_STYLE_COLOUR($,#212);
#212=COLOUR_RGB('',0.749019607843137,0.749019607843137,0.749019607843137);
ENDSEC;
END-ISO-10303-21;
