ISO-10303-21;
HEADER;
/* Generated by software containing ST-Developer
 * from STEP Tools, Inc. (www.steptools.com) 
 */

FILE_DESCRIPTION(
/* description */ (''),
/* implementation_level */ '2;1');

FILE_NAME(
/* name */ 
'C:\\Users\\mitarbeiter\\Desktop\\3D\\Imported Components\\IN125200\\I
N125200.stp',
/* time_stamp */ '2016-10-05T11:13:23+02:00',
/* author */ ('mitarbeiter'),
/* organization */ (''),
/* preprocessor_version */ 'ST-DEVELOPER v15.2',
/* originating_system */ 'Autodesk Inventor 2014',
/* authorisation */ '');

FILE_SCHEMA (('AUTOMOTIVE_DESIGN { 1 0 10303 214 3 1 1 }'));
ENDSEC;

DATA;
#10=SHAPE_REPRESENTATION_RELATIONSHIP('SRR','None',#305,#11);
#11=ADVANCED_BREP_SHAPE_REPRESENTATION($,(#141),#296);
#12=FACE_BOUND($,#48,.T.);
#13=FACE_BOUND($,#50,.T.);
#14=FACE_BOUND($,#52,.T.);
#15=FACE_BOUND($,#54,.T.);
#16=FACE_BOUND($,#56,.T.);
#17=FACE_BOUND($,#58,.T.);
#18=FACE_BOUND($,#60,.T.);
#19=FACE_BOUND($,#62,.T.);
#20=FACE_BOUND($,#63,.T.);
#21=CYLINDRICAL_SURFACE($,#148,3.);
#22=CYLINDRICAL_SURFACE($,#152,5.5);
#23=CYLINDRICAL_SURFACE($,#157,6.00000000000001);
#24=CYLINDRICAL_SURFACE($,#161,5.5);
#25=SPHERICAL_SURFACE($,#146,2.);
#26=PLANE($,#145);
#27=PLANE($,#151);
#28=PLANE($,#155);
#29=PLANE($,#159);
#30=PLANE($,#163);
#31=PLANE($,#164);
#32=FACE_OUTER_BOUND($,#44,.T.);
#33=FACE_OUTER_BOUND($,#45,.T.);
#34=FACE_OUTER_BOUND($,#46,.T.);
#35=FACE_OUTER_BOUND($,#47,.T.);
#36=FACE_OUTER_BOUND($,#49,.T.);
#37=FACE_OUTER_BOUND($,#51,.T.);
#38=FACE_OUTER_BOUND($,#53,.T.);
#39=FACE_OUTER_BOUND($,#55,.T.);
#40=FACE_OUTER_BOUND($,#57,.T.);
#41=FACE_OUTER_BOUND($,#59,.T.);
#42=FACE_OUTER_BOUND($,#61,.T.);
#43=FACE_OUTER_BOUND($,#64,.T.);
#44=EDGE_LOOP($,(#100,#101,#102,#103));
#45=EDGE_LOOP($,(#104));
#46=EDGE_LOOP($,(#105));
#47=EDGE_LOOP($,(#106));
#48=EDGE_LOOP($,(#107));
#49=EDGE_LOOP($,(#108));
#50=EDGE_LOOP($,(#109));
#51=EDGE_LOOP($,(#110));
#52=EDGE_LOOP($,(#111));
#53=EDGE_LOOP($,(#112));
#54=EDGE_LOOP($,(#113));
#55=EDGE_LOOP($,(#114));
#56=EDGE_LOOP($,(#115));
#57=EDGE_LOOP($,(#116));
#58=EDGE_LOOP($,(#117));
#59=EDGE_LOOP($,(#118));
#60=EDGE_LOOP($,(#119));
#61=EDGE_LOOP($,(#120));
#62=EDGE_LOOP($,(#121));
#63=EDGE_LOOP($,(#122));
#64=EDGE_LOOP($,(#123));
#65=(
BOUNDED_CURVE()
B_SPLINE_CURVE(4,(#260,#261,#262,#263,#264),.UNSPECIFIED.,.F.,.F.)
B_SPLINE_CURVE_WITH_KNOTS((5,5),(0.,1.),.UNSPECIFIED.)
CURVE()
GEOMETRIC_REPRESENTATION_ITEM()
RATIONAL_B_SPLINE_CURVE((1.,1.,1.,1.,1.))
REPRESENTATION_ITEM($)
);
#66=CIRCLE($,#143,2.5);
#67=CIRCLE($,#144,2.5);
#68=CIRCLE($,#147,2.);
#69=CIRCLE($,#149,3.);
#70=CIRCLE($,#150,3.);
#71=CIRCLE($,#153,5.5);
#72=CIRCLE($,#154,5.5);
#73=CIRCLE($,#156,6.);
#74=CIRCLE($,#158,6.00000000000001);
#75=CIRCLE($,#160,5.5);
#76=CIRCLE($,#162,5.5);
#77=VERTEX_POINT($,#257);
#78=VERTEX_POINT($,#259);
#79=VERTEX_POINT($,#268);
#80=VERTEX_POINT($,#271);
#81=VERTEX_POINT($,#273);
#82=VERTEX_POINT($,#277);
#83=VERTEX_POINT($,#279);
#84=VERTEX_POINT($,#282);
#85=VERTEX_POINT($,#285);
#86=VERTEX_POINT($,#288);
#87=VERTEX_POINT($,#291);
#88=EDGE_CURVE($,#77,#77,#66,.T.);
#89=EDGE_CURVE($,#77,#78,#65,.T.);
#90=EDGE_CURVE($,#78,#78,#67,.T.);
#91=EDGE_CURVE($,#79,#79,#68,.T.);
#92=EDGE_CURVE($,#80,#80,#69,.T.);
#93=EDGE_CURVE($,#81,#81,#70,.T.);
#94=EDGE_CURVE($,#82,#82,#71,.T.);
#95=EDGE_CURVE($,#83,#83,#72,.T.);
#96=EDGE_CURVE($,#84,#84,#73,.T.);
#97=EDGE_CURVE($,#85,#85,#74,.T.);
#98=EDGE_CURVE($,#86,#86,#75,.T.);
#99=EDGE_CURVE($,#87,#87,#76,.T.);
#100=ORIENTED_EDGE($,*,*,#88,.F.);
#101=ORIENTED_EDGE($,*,*,#89,.T.);
#102=ORIENTED_EDGE($,*,*,#90,.F.);
#103=ORIENTED_EDGE($,*,*,#89,.F.);
#104=ORIENTED_EDGE($,*,*,#90,.T.);
#105=ORIENTED_EDGE($,*,*,#91,.F.);
#106=ORIENTED_EDGE($,*,*,#92,.F.);
#107=ORIENTED_EDGE($,*,*,#93,.F.);
#108=ORIENTED_EDGE($,*,*,#92,.T.);
#109=ORIENTED_EDGE($,*,*,#88,.T.);
#110=ORIENTED_EDGE($,*,*,#94,.F.);
#111=ORIENTED_EDGE($,*,*,#95,.T.);
#112=ORIENTED_EDGE($,*,*,#96,.F.);
#113=ORIENTED_EDGE($,*,*,#94,.T.);
#114=ORIENTED_EDGE($,*,*,#97,.F.);
#115=ORIENTED_EDGE($,*,*,#96,.T.);
#116=ORIENTED_EDGE($,*,*,#97,.T.);
#117=ORIENTED_EDGE($,*,*,#98,.F.);
#118=ORIENTED_EDGE($,*,*,#99,.F.);
#119=ORIENTED_EDGE($,*,*,#98,.T.);
#120=ORIENTED_EDGE($,*,*,#99,.T.);
#121=ORIENTED_EDGE($,*,*,#91,.T.);
#122=ORIENTED_EDGE($,*,*,#93,.T.);
#123=ORIENTED_EDGE($,*,*,#95,.F.);
#124=(
BOUNDED_SURFACE()
B_SPLINE_SURFACE(2,4,((#212,#213,#214,#215,#216),(#217,#218,#219,#220,#221),
(#222,#223,#224,#225,#226),(#227,#228,#229,#230,#231),(#232,#233,#234,#235,
#236),(#237,#238,#239,#240,#241),(#242,#243,#244,#245,#246),(#247,#248,
#249,#250,#251),(#252,#253,#254,#255,#256)),.UNSPECIFIED.,.T.,.F.,.F.)
B_SPLINE_SURFACE_WITH_KNOTS((3,2,2,2,3),(5,5),(-3.14159265358979,-1.5707963267949,
0.,1.5707963267949,3.14159265358979),(0.,1.),.UNSPECIFIED.)
GEOMETRIC_REPRESENTATION_ITEM()
RATIONAL_B_SPLINE_SURFACE(((1.,1.,1.,1.,1.),(0.707106781186548,0.707106781186548,
0.707106781186548,0.707106781186548,0.707106781186548),(1.,1.,1.,1.,1.),
(0.707106781186548,0.707106781186548,0.707106781186548,0.707106781186548,
0.707106781186548),(1.,1.,1.,1.,1.),(0.707106781186547,0.707106781186547,
0.707106781186547,0.707106781186547,0.707106781186547),(1.,1.,1.,1.,1.),
(0.707106781186548,0.707106781186548,0.707106781186548,0.707106781186548,
0.707106781186548),(1.,1.,1.,1.,1.)))
REPRESENTATION_ITEM($)
SURFACE()
);
#125=STYLED_ITEM($,(#314),#128);
#126=STYLED_ITEM($,(#315),#130);
#127=STYLED_ITEM($,(#313),#141);
#128=ADVANCED_FACE($,(#32),#124,.T.);
#129=ADVANCED_FACE($,(#33),#26,.F.);
#130=ADVANCED_FACE($,(#34),#25,.T.);
#131=ADVANCED_FACE($,(#35,#12),#21,.T.);
#132=ADVANCED_FACE($,(#36,#13),#27,.F.);
#133=ADVANCED_FACE($,(#37,#14),#22,.T.);
#134=ADVANCED_FACE($,(#38,#15),#28,.T.);
#135=ADVANCED_FACE($,(#39,#16),#23,.T.);
#136=ADVANCED_FACE($,(#40,#17),#29,.T.);
#137=ADVANCED_FACE($,(#41,#18),#24,.T.);
#138=ADVANCED_FACE($,(#42,#19,#20),#30,.T.);
#139=ADVANCED_FACE($,(#43),#31,.T.);
#140=CLOSED_SHELL($,(#128,#129,#130,#131,#132,#133,#134,#135,#136,#137,
#138,#139));
#141=MANIFOLD_SOLID_BREP('Volumenk\X\F6rper1',#140);
#142=AXIS2_PLACEMENT_3D('placement',#211,#165,#166);
#143=AXIS2_PLACEMENT_3D($,#258,#167,#168);
#144=AXIS2_PLACEMENT_3D($,#265,#169,#170);
#145=AXIS2_PLACEMENT_3D($,#266,#171,#172);
#146=AXIS2_PLACEMENT_3D($,#267,#173,#174);
#147=AXIS2_PLACEMENT_3D($,#269,#175,#176);
#148=AXIS2_PLACEMENT_3D($,#270,#177,#178);
#149=AXIS2_PLACEMENT_3D($,#272,#179,#180);
#150=AXIS2_PLACEMENT_3D($,#274,#181,#182);
#151=AXIS2_PLACEMENT_3D($,#275,#183,#184);
#152=AXIS2_PLACEMENT_3D($,#276,#185,#186);
#153=AXIS2_PLACEMENT_3D($,#278,#187,#188);
#154=AXIS2_PLACEMENT_3D($,#280,#189,#190);
#155=AXIS2_PLACEMENT_3D($,#281,#191,#192);
#156=AXIS2_PLACEMENT_3D($,#283,#193,#194);
#157=AXIS2_PLACEMENT_3D($,#284,#195,#196);
#158=AXIS2_PLACEMENT_3D($,#286,#197,#198);
#159=AXIS2_PLACEMENT_3D($,#287,#199,#200);
#160=AXIS2_PLACEMENT_3D($,#289,#201,#202);
#161=AXIS2_PLACEMENT_3D($,#290,#203,#204);
#162=AXIS2_PLACEMENT_3D($,#292,#205,#206);
#163=AXIS2_PLACEMENT_3D($,#293,#207,#208);
#164=AXIS2_PLACEMENT_3D($,#294,#209,#210);
#165=DIRECTION('axis',(0.,0.,1.));
#166=DIRECTION('refdir',(1.,0.,0.));
#167=DIRECTION('center_axis',(-1.,-1.83697019872103E-016,0.));
#168=DIRECTION('ref_axis',(0.,0.,1.));
#169=DIRECTION('center_axis',(1.,1.83697019872103E-016,0.));
#170=DIRECTION('ref_axis',(0.,0.,1.));
#171=DIRECTION('center_axis',(-1.,-1.83697019872103E-016,0.));
#172=DIRECTION('ref_axis',(0.,0.,1.));
#173=DIRECTION('center_axis',(1.,-1.83692975339605E-016,0.));
#174=DIRECTION('ref_axis',(0.,-1.,0.));
#175=DIRECTION('center_axis',(-1.,-1.83697019872103E-016,0.));
#176=DIRECTION('ref_axis',(0.,0.,1.));
#177=DIRECTION('center_axis',(1.,1.83697019872103E-016,0.));
#178=DIRECTION('ref_axis',(0.,0.,1.));
#179=DIRECTION('center_axis',(1.,1.83697019872103E-016,0.));
#180=DIRECTION('ref_axis',(0.,0.,1.));
#181=DIRECTION('center_axis',(-1.,-1.83697019872103E-016,0.));
#182=DIRECTION('ref_axis',(0.,0.,1.));
#183=DIRECTION('center_axis',(-1.,-1.83697019872103E-016,0.));
#184=DIRECTION('ref_axis',(0.,0.,1.));
#185=DIRECTION('center_axis',(1.,1.83697019872103E-016,0.));
#186=DIRECTION('ref_axis',(-1.83697019872103E-016,1.,0.));
#187=DIRECTION('center_axis',(1.,1.83697019872103E-016,0.));
#188=DIRECTION('ref_axis',(0.,0.,-1.));
#189=DIRECTION('center_axis',(1.,1.83697019872103E-016,0.));
#190=DIRECTION('ref_axis',(0.,0.,-1.));
#191=DIRECTION('center_axis',(-1.,-1.83697019872103E-016,0.));
#192=DIRECTION('ref_axis',(0.,0.,1.));
#193=DIRECTION('center_axis',(1.,1.83697019872103E-016,0.));
#194=DIRECTION('ref_axis',(0.,0.,-1.));
#195=DIRECTION('center_axis',(1.,1.83697019872103E-016,0.));
#196=DIRECTION('ref_axis',(-1.83697019872103E-016,1.,0.));
#197=DIRECTION('center_axis',(1.,1.83697019872103E-016,0.));
#198=DIRECTION('ref_axis',(0.,0.,-1.));
#199=DIRECTION('center_axis',(1.,1.83697019872103E-016,0.));
#200=DIRECTION('ref_axis',(0.,0.,-1.));
#201=DIRECTION('center_axis',(1.,1.83697019872103E-016,0.));
#202=DIRECTION('ref_axis',(0.,0.,-1.));
#203=DIRECTION('center_axis',(1.,1.83697019872103E-016,0.));
#204=DIRECTION('ref_axis',(-1.83697019872103E-016,1.,0.));
#205=DIRECTION('center_axis',(1.,1.83697019872103E-016,0.));
#206=DIRECTION('ref_axis',(0.,0.,-1.));
#207=DIRECTION('center_axis',(1.,1.83697019872103E-016,0.));
#208=DIRECTION('ref_axis',(0.,0.,-1.));
#209=DIRECTION('center_axis',(-1.,-1.83697019872103E-016,0.));
#210=DIRECTION('ref_axis',(0.,0.,1.));
#211=CARTESIAN_POINT('',(0.,0.,0.));
#212=CARTESIAN_POINT('Ctrl Pts',(93.5,1.74818229464972E-014,-4.5));
#213=CARTESIAN_POINT('Ctrl Pts',(109.022989647633,2.53299017150173,-11.6370215144787));
#214=CARTESIAN_POINT('Ctrl Pts',(98.112002443419,-3.57700416955375,17.4780728219053));
#215=CARTESIAN_POINT('Ctrl Pts',(122.759402433323,1.69211515923499,-13.4411837093275));
#216=CARTESIAN_POINT('Ctrl Pts',(124.422887380061,0.121466996208464,-0.0970470561584127));
#217=CARTESIAN_POINT('Ctrl Pts',(93.5,2.50000000000002,-4.5));
#218=CARTESIAN_POINT('Ctrl Pts',(109.022989647633,5.03299017150173,-11.6370215144787));
#219=CARTESIAN_POINT('Ctrl Pts',(98.112002443419,-1.07700416955375,17.4780728219053));
#220=CARTESIAN_POINT('Ctrl Pts',(122.759402433323,4.19211515923499,-13.4411837093275));
#221=CARTESIAN_POINT('Ctrl Pts',(124.422887380061,2.62146699620846,-0.0970470561584122));
#222=CARTESIAN_POINT('Ctrl Pts',(93.5,2.50000000000002,-2.));
#223=CARTESIAN_POINT('Ctrl Pts',(109.022989647633,5.03299017150173,-9.13702151447869));
#224=CARTESIAN_POINT('Ctrl Pts',(98.112002443419,-1.07700416955375,19.9780728219053));
#225=CARTESIAN_POINT('Ctrl Pts',(122.759402433323,4.19211515923499,-10.9411837093275));
#226=CARTESIAN_POINT('Ctrl Pts',(124.422887380061,2.62146699620846,2.40295294384159));
#227=CARTESIAN_POINT('Ctrl Pts',(93.5,2.50000000000002,0.5));
#228=CARTESIAN_POINT('Ctrl Pts',(109.022989647633,5.03299017150173,-6.63702151447869));
#229=CARTESIAN_POINT('Ctrl Pts',(98.112002443419,-1.07700416955375,22.4780728219053));
#230=CARTESIAN_POINT('Ctrl Pts',(122.759402433323,4.19211515923499,-8.44118370932751));
#231=CARTESIAN_POINT('Ctrl Pts',(124.422887380061,2.62146699620846,4.90295294384159));
#232=CARTESIAN_POINT('Ctrl Pts',(93.5,1.71756713580416E-014,0.5));
#233=CARTESIAN_POINT('Ctrl Pts',(109.022989647633,2.53299017150173,-6.63702151447869));
#234=CARTESIAN_POINT('Ctrl Pts',(98.112002443419,-3.57700416955375,22.4780728219053));
#235=CARTESIAN_POINT('Ctrl Pts',(122.759402433323,1.69211515923499,-8.44118370932751));
#236=CARTESIAN_POINT('Ctrl Pts',(124.422887380061,0.121466996208463,4.90295294384159));
#237=CARTESIAN_POINT('Ctrl Pts',(93.5,-2.49999999999998,0.5));
#238=CARTESIAN_POINT('Ctrl Pts',(109.022989647633,0.0329901715017272,-6.63702151447869));
#239=CARTESIAN_POINT('Ctrl Pts',(98.112002443419,-6.07700416955375,22.4780728219053));
#240=CARTESIAN_POINT('Ctrl Pts',(122.759402433323,-0.807884840765012,-8.44118370932751));
#241=CARTESIAN_POINT('Ctrl Pts',(124.422887380061,-2.37853300379154,4.90295294384159));
#242=CARTESIAN_POINT('Ctrl Pts',(93.5,-2.49999999999998,-2.));
#243=CARTESIAN_POINT('Ctrl Pts',(109.022989647633,0.0329901715017269,-9.13702151447869));
#244=CARTESIAN_POINT('Ctrl Pts',(98.112002443419,-6.07700416955375,19.9780728219053));
#245=CARTESIAN_POINT('Ctrl Pts',(122.759402433323,-0.807884840765012,-10.9411837093275));
#246=CARTESIAN_POINT('Ctrl Pts',(124.422887380061,-2.37853300379154,2.40295294384159));
#247=CARTESIAN_POINT('Ctrl Pts',(93.5,-2.49999999999998,-4.5));
#248=CARTESIAN_POINT('Ctrl Pts',(109.022989647633,0.0329901715017266,-11.6370215144787));
#249=CARTESIAN_POINT('Ctrl Pts',(98.112002443419,-6.07700416955375,17.4780728219053));
#250=CARTESIAN_POINT('Ctrl Pts',(122.759402433323,-0.807884840765012,-13.4411837093275));
#251=CARTESIAN_POINT('Ctrl Pts',(124.422887380061,-2.37853300379154,-0.0970470561584122));
#252=CARTESIAN_POINT('Ctrl Pts',(93.5,1.6869519769586E-014,-4.5));
#253=CARTESIAN_POINT('Ctrl Pts',(109.022989647633,2.53299017150173,-11.6370215144787));
#254=CARTESIAN_POINT('Ctrl Pts',(98.112002443419,-3.57700416955375,17.4780728219053));
#255=CARTESIAN_POINT('Ctrl Pts',(122.759402433323,1.69211515923499,-13.4411837093275));
#256=CARTESIAN_POINT('Ctrl Pts',(124.422887380061,0.121466996208463,-0.0970470561584127));
#257=CARTESIAN_POINT('',(93.5,1.74818330578285E-014,-4.5));
#258=CARTESIAN_POINT('Origin',(93.5,1.71756713580416E-014,-2.));
#259=CARTESIAN_POINT('',(124.422887380061,0.121466996208464,-0.0970470561584127));
#260=CARTESIAN_POINT('Ctrl Pts',(93.5,1.74818229464972E-014,-4.5));
#261=CARTESIAN_POINT('Ctrl Pts',(109.022989647633,2.53299017150174,-11.6370215144787));
#262=CARTESIAN_POINT('Ctrl Pts',(98.112002443419,-3.57700416955375,17.4780728219053));
#263=CARTESIAN_POINT('Ctrl Pts',(122.759402433323,1.69211515923501,-13.4411837093275));
#264=CARTESIAN_POINT('Ctrl Pts',(124.422887380061,0.121466996208492,-0.0970470561584174));
#265=CARTESIAN_POINT('Origin',(124.422887380061,0.121466996208463,2.40295294384159));
#266=CARTESIAN_POINT('Origin',(124.422887380061,0.121466996208464,2.40295294384159));
#267=CARTESIAN_POINT('Origin',(69.5,1.27669428811112E-014,3.23480860598099));
#268=CARTESIAN_POINT('',(69.5,1.30118722409406E-014,1.23480860598099));
#269=CARTESIAN_POINT('Origin',(69.5,1.27669428811112E-014,3.23480860598099));
#270=CARTESIAN_POINT('Origin',(69.5,1.27669428811112E-014,-2.));
#271=CARTESIAN_POINT('',(93.5,1.75430653977858E-014,-5.));
#272=CARTESIAN_POINT('Origin',(93.5,1.71756713580416E-014,-2.));
#273=CARTESIAN_POINT('',(69.5,1.31343369208554E-014,-5.));
#274=CARTESIAN_POINT('Origin',(69.5,1.27669428811112E-014,-2.));
#275=CARTESIAN_POINT('Origin',(93.5,1.72147390203507E-014,-2.));
#276=CARTESIAN_POINT('Origin',(3.,5.51091059616309E-016,0.));
#277=CARTESIAN_POINT('',(6.,5.5,0.));
#278=CARTESIAN_POINT('Origin',(6.,1.10218211923262E-015,0.));
#279=CARTESIAN_POINT('',(0.,5.5,0.));
#280=CARTESIAN_POINT('Origin',(1.01033360929657E-015,1.85595273104405E-031,
0.));
#281=CARTESIAN_POINT('Origin',(6.,6.,0.));
#282=CARTESIAN_POINT('',(6.,6.,0.));
#283=CARTESIAN_POINT('Origin',(6.,1.10218211923262E-015,0.));
#284=CARTESIAN_POINT('Origin',(32.75,6.01607740081137E-015,0.));
#285=CARTESIAN_POINT('',(59.5,6.00000000000002,0.));
#286=CARTESIAN_POINT('Origin',(59.5,1.09299726823901E-014,0.));
#287=CARTESIAN_POINT('Origin',(59.5,5.50000000000001,0.));
#288=CARTESIAN_POINT('',(59.5,5.50000000000001,0.));
#289=CARTESIAN_POINT('Origin',(59.5,1.09299726823901E-014,0.));
#290=CARTESIAN_POINT('Origin',(64.5,1.18484577817506E-014,0.));
#291=CARTESIAN_POINT('',(69.5,5.50000000000001,0.));
#292=CARTESIAN_POINT('Origin',(69.5,1.27669428811112E-014,0.));
#293=CARTESIAN_POINT('Origin',(69.5,1.22124532708767E-014,0.));
#294=CARTESIAN_POINT('Origin',(0.,5.5,0.));
#295=UNCERTAINTY_MEASURE_WITH_UNIT(LENGTH_MEASURE(0.01),#297,
'DISTANCE_ACCURACY_VALUE',
'Maximum model space distance between geometric entities at asserted c
onnectivities');
#296=(
GEOMETRIC_REPRESENTATION_CONTEXT(3)
GLOBAL_UNCERTAINTY_ASSIGNED_CONTEXT((#295))
GLOBAL_UNIT_ASSIGNED_CONTEXT((#297,#300,#298))
REPRESENTATION_CONTEXT('','3D')
);
#297=(
LENGTH_UNIT()
NAMED_UNIT(*)
SI_UNIT(.MILLI.,.METRE.)
);
#298=(
NAMED_UNIT(*)
SI_UNIT($,.STERADIAN.)
SOLID_ANGLE_UNIT()
);
#299=DIMENSIONAL_EXPONENTS(0.,0.,0.,0.,0.,0.,0.);
#300=(
CONVERSION_BASED_UNIT('degree',#302)
NAMED_UNIT(#299)
PLANE_ANGLE_UNIT()
);
#301=(
NAMED_UNIT(*)
PLANE_ANGLE_UNIT()
SI_UNIT($,.RADIAN.)
);
#302=PLANE_ANGLE_MEASURE_WITH_UNIT(PLANE_ANGLE_MEASURE(0.01745329252),#301);
#303=SHAPE_DEFINITION_REPRESENTATION(#304,#305);
#304=PRODUCT_DEFINITION_SHAPE('',$,#307);
#305=SHAPE_REPRESENTATION('',(#142),#296);
#306=PRODUCT_DEFINITION_CONTEXT('3D Mechanical Parts',#310,'design');
#307=PRODUCT_DEFINITION('IN125200','IN125200',#308,#306);
#308=PRODUCT_DEFINITION_FORMATION('',$,#312);
#309=APPLICATION_PROTOCOL_DEFINITION('international standard',
'automotive_design',2009,#310);
#310=APPLICATION_CONTEXT(
'Core Data for Automotive Mechanical Design Process');
#311=PRODUCT_CONTEXT('3D Mechanical Parts',#310,'mechanical');
#312=PRODUCT('IN125200','IN125200',$,(#311));
#313=PRESENTATION_STYLE_ASSIGNMENT((#316));
#314=PRESENTATION_STYLE_ASSIGNMENT((#317));
#315=PRESENTATION_STYLE_ASSIGNMENT((#318));
#316=SURFACE_STYLE_USAGE(.BOTH.,#319);
#317=SURFACE_STYLE_USAGE(.BOTH.,#320);
#318=SURFACE_STYLE_USAGE(.BOTH.,#321);
#319=SURFACE_SIDE_STYLE($,(#322));
#320=SURFACE_SIDE_STYLE($,(#323));
#321=SURFACE_SIDE_STYLE($,(#324));
#322=SURFACE_STYLE_FILL_AREA(#325);
#323=SURFACE_STYLE_FILL_AREA(#326);
#324=SURFACE_STYLE_FILL_AREA(#327);
#325=FILL_AREA_STYLE($,(#328));
#326=FILL_AREA_STYLE($,(#329));
#327=FILL_AREA_STYLE($,(#330));
#328=FILL_AREA_STYLE_COLOUR($,#331);
#329=FILL_AREA_STYLE_COLOUR($,#332);
#330=FILL_AREA_STYLE_COLOUR($,#333);
#331=COLOUR_RGB('',0.749019607843137,0.749019607843137,0.749019607843137);
#332=COLOUR_RGB('',0.411764705882353,0.411764705882353,0.411764705882353);
#333=COLOUR_RGB('',0.866666666666667,0.866666666666667,0.0509803921568627);
ENDSEC;
END-ISO-10303-21;
