ISO-10303-21;
HEADER;
/* Generated by software containing ST-Developer
 * from STEP Tools, Inc. (www.steptools.com) 
 */

FILE_DESCRIPTION(
/* description */ (''),
/* implementation_level */ '2;1');

FILE_NAME(
/* name */ 
'C:\\Users\\mitarbeiter\\Desktop\\3D\\Imported Components\\LT207017\\L
T207017.stp',
/* time_stamp */ '2016-10-06T14:22:27+02:00',
/* author */ ('mitarbeiter'),
/* organization */ (''),
/* preprocessor_version */ 'ST-DEVELOPER v15.2',
/* originating_system */ 'Autodesk Inventor 2014',
/* authorisation */ '');

FILE_SCHEMA (('AUTOMOTIVE_DESIGN { 1 0 10303 214 3 1 1 }'));
ENDSEC;

DATA;
#10=ITEM_DEFINED_TRANSFORMATION($,$,#323,#377);
#11=(
REPRESENTATION_RELATIONSHIP($,$,#592,#593)
REPRESENTATION_RELATIONSHIP_WITH_TRANSFORMATION(#10)
SHAPE_REPRESENTATION_RELATIONSHIP()
);
#12=CONTEXT_DEPENDENT_SHAPE_REPRESENTATION(#11,#591);
#13=NEXT_ASSEMBLY_USAGE_OCCURRENCE('LT207017',$,$,#596,#595,$);
#14=SHAPE_REPRESENTATION_RELATIONSHIP('SRR','None',#592,#15);
#15=ADVANCED_BREP_SHAPE_REPRESENTATION($,(#322),#582);
#16=STYLED_ITEM($,(#604),#322);
#17=PLANE($,#365);
#18=PLANE($,#366);
#19=PLANE($,#367);
#20=PLANE($,#368);
#21=PLANE($,#369);
#22=PLANE($,#370);
#23=PLANE($,#371);
#24=PLANE($,#372);
#25=PLANE($,#373);
#26=PLANE($,#374);
#27=PLANE($,#375);
#28=LINE($,#545,#33);
#29=LINE($,#548,#34);
#30=LINE($,#566,#35);
#31=LINE($,#567,#36);
#32=LINE($,#572,#37);
#33=VECTOR($,#442,12.);
#34=VECTOR($,#445,12.);
#35=VECTOR($,#468,1.32287565553229);
#36=VECTOR($,#469,1.32287565553229);
#37=VECTOR($,#478,2.64575131106458);
#38=CYLINDRICAL_SURFACE($,#336,0.5);
#39=CYLINDRICAL_SURFACE($,#339,1.);
#40=CYLINDRICAL_SURFACE($,#342,0.5);
#41=CYLINDRICAL_SURFACE($,#344,0.5);
#42=CYLINDRICAL_SURFACE($,#345,0.65);
#43=CYLINDRICAL_SURFACE($,#347,0.649999999999998);
#44=CYLINDRICAL_SURFACE($,#348,0.65);
#45=CYLINDRICAL_SURFACE($,#350,0.55);
#46=CYLINDRICAL_SURFACE($,#353,2.);
#47=CYLINDRICAL_SURFACE($,#357,1.5);
#48=CYLINDRICAL_SURFACE($,#360,1.15);
#49=CYLINDRICAL_SURFACE($,#363,0.5);
#50=FACE_BOUND($,#100,.T.);
#51=FACE_BOUND($,#102,.T.);
#52=FACE_BOUND($,#104,.T.);
#53=FACE_BOUND($,#106,.T.);
#54=FACE_BOUND($,#108,.T.);
#55=FACE_BOUND($,#110,.T.);
#56=FACE_BOUND($,#112,.T.);
#57=FACE_BOUND($,#114,.T.);
#58=FACE_BOUND($,#116,.T.);
#59=FACE_BOUND($,#118,.T.);
#60=FACE_BOUND($,#120,.T.);
#61=FACE_BOUND($,#122,.T.);
#62=FACE_BOUND($,#124,.T.);
#63=FACE_BOUND($,#126,.T.);
#64=FACE_BOUND($,#128,.T.);
#65=FACE_BOUND($,#130,.T.);
#66=FACE_BOUND($,#132,.T.);
#67=FACE_BOUND($,#135,.T.);
#68=FACE_BOUND($,#136,.T.);
#69=FACE_BOUND($,#139,.T.);
#70=FACE_BOUND($,#144,.T.);
#71=FACE_BOUND($,#146,.T.);
#72=FACE_OUTER_BOUND($,#99,.T.);
#73=FACE_OUTER_BOUND($,#101,.T.);
#74=FACE_OUTER_BOUND($,#103,.T.);
#75=FACE_OUTER_BOUND($,#105,.T.);
#76=FACE_OUTER_BOUND($,#107,.T.);
#77=FACE_OUTER_BOUND($,#109,.T.);
#78=FACE_OUTER_BOUND($,#111,.T.);
#79=FACE_OUTER_BOUND($,#113,.T.);
#80=FACE_OUTER_BOUND($,#115,.T.);
#81=FACE_OUTER_BOUND($,#117,.T.);
#82=FACE_OUTER_BOUND($,#119,.T.);
#83=FACE_OUTER_BOUND($,#121,.T.);
#84=FACE_OUTER_BOUND($,#123,.T.);
#85=FACE_OUTER_BOUND($,#125,.T.);
#86=FACE_OUTER_BOUND($,#127,.T.);
#87=FACE_OUTER_BOUND($,#129,.T.);
#88=FACE_OUTER_BOUND($,#131,.T.);
#89=FACE_OUTER_BOUND($,#133,.T.);
#90=FACE_OUTER_BOUND($,#134,.T.);
#91=FACE_OUTER_BOUND($,#137,.T.);
#92=FACE_OUTER_BOUND($,#138,.T.);
#93=FACE_OUTER_BOUND($,#140,.T.);
#94=FACE_OUTER_BOUND($,#141,.T.);
#95=FACE_OUTER_BOUND($,#142,.T.);
#96=FACE_OUTER_BOUND($,#143,.T.);
#97=FACE_OUTER_BOUND($,#145,.T.);
#98=FACE_OUTER_BOUND($,#147,.T.);
#99=EDGE_LOOP($,(#230));
#100=EDGE_LOOP($,(#231));
#101=EDGE_LOOP($,(#232));
#102=EDGE_LOOP($,(#233));
#103=EDGE_LOOP($,(#234));
#104=EDGE_LOOP($,(#235));
#105=EDGE_LOOP($,(#236));
#106=EDGE_LOOP($,(#237));
#107=EDGE_LOOP($,(#238));
#108=EDGE_LOOP($,(#239));
#109=EDGE_LOOP($,(#240));
#110=EDGE_LOOP($,(#241));
#111=EDGE_LOOP($,(#242));
#112=EDGE_LOOP($,(#243));
#113=EDGE_LOOP($,(#244));
#114=EDGE_LOOP($,(#245));
#115=EDGE_LOOP($,(#246));
#116=EDGE_LOOP($,(#247));
#117=EDGE_LOOP($,(#248));
#118=EDGE_LOOP($,(#249));
#119=EDGE_LOOP($,(#250));
#120=EDGE_LOOP($,(#251));
#121=EDGE_LOOP($,(#252));
#122=EDGE_LOOP($,(#253));
#123=EDGE_LOOP($,(#254,#255,#256,#257));
#124=EDGE_LOOP($,(#258));
#125=EDGE_LOOP($,(#259));
#126=EDGE_LOOP($,(#260));
#127=EDGE_LOOP($,(#261));
#128=EDGE_LOOP($,(#262));
#129=EDGE_LOOP($,(#263));
#130=EDGE_LOOP($,(#264));
#131=EDGE_LOOP($,(#265));
#132=EDGE_LOOP($,(#266));
#133=EDGE_LOOP($,(#267,#268,#269,#270));
#134=EDGE_LOOP($,(#271));
#135=EDGE_LOOP($,(#272));
#136=EDGE_LOOP($,(#273));
#137=EDGE_LOOP($,(#274));
#138=EDGE_LOOP($,(#275));
#139=EDGE_LOOP($,(#276));
#140=EDGE_LOOP($,(#277,#278,#279,#280,#281));
#141=EDGE_LOOP($,(#282,#283));
#142=EDGE_LOOP($,(#284));
#143=EDGE_LOOP($,(#285));
#144=EDGE_LOOP($,(#286));
#145=EDGE_LOOP($,(#287));
#146=EDGE_LOOP($,(#288));
#147=EDGE_LOOP($,(#289));
#148=CIRCLE($,#325,0.5);
#149=CIRCLE($,#326,0.5);
#150=CIRCLE($,#328,0.5);
#151=CIRCLE($,#329,0.5);
#152=CIRCLE($,#331,0.65);
#153=CIRCLE($,#332,0.65);
#154=CIRCLE($,#334,0.65);
#155=CIRCLE($,#335,0.65);
#156=CIRCLE($,#337,0.5);
#157=CIRCLE($,#338,0.5);
#158=CIRCLE($,#340,1.);
#159=CIRCLE($,#341,1.);
#160=CIRCLE($,#343,0.5);
#161=CIRCLE($,#346,0.65);
#162=CIRCLE($,#349,0.65);
#163=CIRCLE($,#351,0.55);
#164=CIRCLE($,#352,0.55);
#165=CIRCLE($,#354,2.);
#166=CIRCLE($,#355,2.);
#167=CIRCLE($,#356,2.);
#168=CIRCLE($,#358,1.5);
#169=CIRCLE($,#359,1.5);
#170=CIRCLE($,#361,1.15);
#171=CIRCLE($,#362,1.15);
#172=CIRCLE($,#364,0.5);
#173=VERTEX_POINT($,#495);
#174=VERTEX_POINT($,#497);
#175=VERTEX_POINT($,#500);
#176=VERTEX_POINT($,#502);
#177=VERTEX_POINT($,#505);
#178=VERTEX_POINT($,#507);
#179=VERTEX_POINT($,#510);
#180=VERTEX_POINT($,#512);
#181=VERTEX_POINT($,#515);
#182=VERTEX_POINT($,#517);
#183=VERTEX_POINT($,#520);
#184=VERTEX_POINT($,#522);
#185=VERTEX_POINT($,#525);
#186=VERTEX_POINT($,#529);
#187=VERTEX_POINT($,#533);
#188=VERTEX_POINT($,#536);
#189=VERTEX_POINT($,#538);
#190=VERTEX_POINT($,#541);
#191=VERTEX_POINT($,#542);
#192=VERTEX_POINT($,#544);
#193=VERTEX_POINT($,#546);
#194=VERTEX_POINT($,#549);
#195=VERTEX_POINT($,#552);
#196=VERTEX_POINT($,#554);
#197=VERTEX_POINT($,#557);
#198=VERTEX_POINT($,#559);
#199=VERTEX_POINT($,#562);
#200=EDGE_CURVE($,#173,#173,#148,.T.);
#201=EDGE_CURVE($,#174,#174,#149,.T.);
#202=EDGE_CURVE($,#175,#175,#150,.T.);
#203=EDGE_CURVE($,#176,#176,#151,.T.);
#204=EDGE_CURVE($,#177,#177,#152,.T.);
#205=EDGE_CURVE($,#178,#178,#153,.T.);
#206=EDGE_CURVE($,#179,#179,#154,.T.);
#207=EDGE_CURVE($,#180,#180,#155,.T.);
#208=EDGE_CURVE($,#181,#181,#156,.T.);
#209=EDGE_CURVE($,#182,#182,#157,.T.);
#210=EDGE_CURVE($,#183,#183,#158,.T.);
#211=EDGE_CURVE($,#184,#184,#159,.T.);
#212=EDGE_CURVE($,#185,#185,#160,.T.);
#213=EDGE_CURVE($,#186,#186,#161,.T.);
#214=EDGE_CURVE($,#187,#187,#162,.T.);
#215=EDGE_CURVE($,#188,#188,#163,.T.);
#216=EDGE_CURVE($,#189,#189,#164,.T.);
#217=EDGE_CURVE($,#190,#191,#165,.T.);
#218=EDGE_CURVE($,#192,#191,#28,.T.);
#219=EDGE_CURVE($,#193,#192,#166,.T.);
#220=EDGE_CURVE($,#193,#190,#29,.T.);
#221=EDGE_CURVE($,#194,#194,#167,.T.);
#222=EDGE_CURVE($,#195,#195,#168,.T.);
#223=EDGE_CURVE($,#196,#196,#169,.T.);
#224=EDGE_CURVE($,#197,#197,#170,.T.);
#225=EDGE_CURVE($,#198,#198,#171,.T.);
#226=EDGE_CURVE($,#199,#199,#172,.T.);
#227=EDGE_CURVE($,#191,#196,#30,.T.);
#228=EDGE_CURVE($,#196,#190,#31,.T.);
#229=EDGE_CURVE($,#192,#193,#32,.T.);
#230=ORIENTED_EDGE($,*,*,#200,.T.);
#231=ORIENTED_EDGE($,*,*,#201,.F.);
#232=ORIENTED_EDGE($,*,*,#202,.T.);
#233=ORIENTED_EDGE($,*,*,#203,.F.);
#234=ORIENTED_EDGE($,*,*,#204,.T.);
#235=ORIENTED_EDGE($,*,*,#205,.F.);
#236=ORIENTED_EDGE($,*,*,#206,.T.);
#237=ORIENTED_EDGE($,*,*,#207,.F.);
#238=ORIENTED_EDGE($,*,*,#208,.F.);
#239=ORIENTED_EDGE($,*,*,#209,.F.);
#240=ORIENTED_EDGE($,*,*,#210,.T.);
#241=ORIENTED_EDGE($,*,*,#211,.F.);
#242=ORIENTED_EDGE($,*,*,#200,.F.);
#243=ORIENTED_EDGE($,*,*,#212,.T.);
#244=ORIENTED_EDGE($,*,*,#201,.T.);
#245=ORIENTED_EDGE($,*,*,#202,.F.);
#246=ORIENTED_EDGE($,*,*,#204,.F.);
#247=ORIENTED_EDGE($,*,*,#213,.T.);
#248=ORIENTED_EDGE($,*,*,#205,.T.);
#249=ORIENTED_EDGE($,*,*,#206,.F.);
#250=ORIENTED_EDGE($,*,*,#207,.T.);
#251=ORIENTED_EDGE($,*,*,#214,.F.);
#252=ORIENTED_EDGE($,*,*,#215,.F.);
#253=ORIENTED_EDGE($,*,*,#216,.T.);
#254=ORIENTED_EDGE($,*,*,#217,.T.);
#255=ORIENTED_EDGE($,*,*,#218,.F.);
#256=ORIENTED_EDGE($,*,*,#219,.F.);
#257=ORIENTED_EDGE($,*,*,#220,.T.);
#258=ORIENTED_EDGE($,*,*,#221,.F.);
#259=ORIENTED_EDGE($,*,*,#222,.T.);
#260=ORIENTED_EDGE($,*,*,#223,.F.);
#261=ORIENTED_EDGE($,*,*,#224,.T.);
#262=ORIENTED_EDGE($,*,*,#225,.F.);
#263=ORIENTED_EDGE($,*,*,#203,.T.);
#264=ORIENTED_EDGE($,*,*,#226,.T.);
#265=ORIENTED_EDGE($,*,*,#222,.F.);
#266=ORIENTED_EDGE($,*,*,#225,.T.);
#267=ORIENTED_EDGE($,*,*,#227,.F.);
#268=ORIENTED_EDGE($,*,*,#217,.F.);
#269=ORIENTED_EDGE($,*,*,#228,.F.);
#270=ORIENTED_EDGE($,*,*,#223,.T.);
#271=ORIENTED_EDGE($,*,*,#221,.T.);
#272=ORIENTED_EDGE($,*,*,#212,.F.);
#273=ORIENTED_EDGE($,*,*,#213,.F.);
#274=ORIENTED_EDGE($,*,*,#216,.F.);
#275=ORIENTED_EDGE($,*,*,#224,.F.);
#276=ORIENTED_EDGE($,*,*,#215,.T.);
#277=ORIENTED_EDGE($,*,*,#227,.T.);
#278=ORIENTED_EDGE($,*,*,#228,.T.);
#279=ORIENTED_EDGE($,*,*,#220,.F.);
#280=ORIENTED_EDGE($,*,*,#229,.F.);
#281=ORIENTED_EDGE($,*,*,#218,.T.);
#282=ORIENTED_EDGE($,*,*,#219,.T.);
#283=ORIENTED_EDGE($,*,*,#229,.T.);
#284=ORIENTED_EDGE($,*,*,#214,.T.);
#285=ORIENTED_EDGE($,*,*,#210,.F.);
#286=ORIENTED_EDGE($,*,*,#226,.F.);
#287=ORIENTED_EDGE($,*,*,#211,.T.);
#288=ORIENTED_EDGE($,*,*,#208,.T.);
#289=ORIENTED_EDGE($,*,*,#209,.T.);
#290=TOROIDAL_SURFACE($,#324,4.,0.5);
#291=TOROIDAL_SURFACE($,#327,4.,0.5);
#292=TOROIDAL_SURFACE($,#330,4.,0.65);
#293=TOROIDAL_SURFACE($,#333,4.,0.65);
#294=ADVANCED_FACE($,(#72,#50),#290,.T.);
#295=ADVANCED_FACE($,(#73,#51),#291,.T.);
#296=ADVANCED_FACE($,(#74,#52),#292,.T.);
#297=ADVANCED_FACE($,(#75,#53),#293,.T.);
#298=ADVANCED_FACE($,(#76,#54),#38,.T.);
#299=ADVANCED_FACE($,(#77,#55),#39,.T.);
#300=ADVANCED_FACE($,(#78,#56),#40,.T.);
#301=ADVANCED_FACE($,(#79,#57),#41,.T.);
#302=ADVANCED_FACE($,(#80,#58),#42,.T.);
#303=ADVANCED_FACE($,(#81,#59),#43,.T.);
#304=ADVANCED_FACE($,(#82,#60),#44,.T.);
#305=ADVANCED_FACE($,(#83,#61),#45,.F.);
#306=ADVANCED_FACE($,(#84,#62),#46,.T.);
#307=ADVANCED_FACE($,(#85,#63),#47,.T.);
#308=ADVANCED_FACE($,(#86,#64),#48,.T.);
#309=ADVANCED_FACE($,(#87,#65),#49,.T.);
#310=ADVANCED_FACE($,(#88,#66),#17,.T.);
#311=ADVANCED_FACE($,(#89),#18,.T.);
#312=ADVANCED_FACE($,(#90,#67,#68),#19,.T.);
#313=ADVANCED_FACE($,(#91),#20,.T.);
#314=ADVANCED_FACE($,(#92,#69),#21,.T.);
#315=ADVANCED_FACE($,(#93),#22,.F.);
#316=ADVANCED_FACE($,(#94),#23,.T.);
#317=ADVANCED_FACE($,(#95),#24,.T.);
#318=ADVANCED_FACE($,(#96,#70),#25,.F.);
#319=ADVANCED_FACE($,(#97,#71),#26,.T.);
#320=ADVANCED_FACE($,(#98),#27,.T.);
#321=CLOSED_SHELL($,(#294,#295,#296,#297,#298,#299,#300,#301,#302,#303,
#304,#305,#306,#307,#308,#309,#310,#311,#312,#313,#314,#315,#316,#317,#318,
#319,#320));
#322=MANIFOLD_SOLID_BREP('NONE',#321);
#323=AXIS2_PLACEMENT_3D('placement',#493,#378,#379);
#324=AXIS2_PLACEMENT_3D($,#494,#380,#381);
#325=AXIS2_PLACEMENT_3D($,#496,#382,#383);
#326=AXIS2_PLACEMENT_3D($,#498,#384,#385);
#327=AXIS2_PLACEMENT_3D($,#499,#386,#387);
#328=AXIS2_PLACEMENT_3D($,#501,#388,#389);
#329=AXIS2_PLACEMENT_3D($,#503,#390,#391);
#330=AXIS2_PLACEMENT_3D($,#504,#392,#393);
#331=AXIS2_PLACEMENT_3D($,#506,#394,#395);
#332=AXIS2_PLACEMENT_3D($,#508,#396,#397);
#333=AXIS2_PLACEMENT_3D($,#509,#398,#399);
#334=AXIS2_PLACEMENT_3D($,#511,#400,#401);
#335=AXIS2_PLACEMENT_3D($,#513,#402,#403);
#336=AXIS2_PLACEMENT_3D($,#514,#404,#405);
#337=AXIS2_PLACEMENT_3D($,#516,#406,#407);
#338=AXIS2_PLACEMENT_3D($,#518,#408,#409);
#339=AXIS2_PLACEMENT_3D($,#519,#410,#411);
#340=AXIS2_PLACEMENT_3D($,#521,#412,#413);
#341=AXIS2_PLACEMENT_3D($,#523,#414,#415);
#342=AXIS2_PLACEMENT_3D($,#524,#416,#417);
#343=AXIS2_PLACEMENT_3D($,#526,#418,#419);
#344=AXIS2_PLACEMENT_3D($,#527,#420,#421);
#345=AXIS2_PLACEMENT_3D($,#528,#422,#423);
#346=AXIS2_PLACEMENT_3D($,#530,#424,#425);
#347=AXIS2_PLACEMENT_3D($,#531,#426,#427);
#348=AXIS2_PLACEMENT_3D($,#532,#428,#429);
#349=AXIS2_PLACEMENT_3D($,#534,#430,#431);
#350=AXIS2_PLACEMENT_3D($,#535,#432,#433);
#351=AXIS2_PLACEMENT_3D($,#537,#434,#435);
#352=AXIS2_PLACEMENT_3D($,#539,#436,#437);
#353=AXIS2_PLACEMENT_3D($,#540,#438,#439);
#354=AXIS2_PLACEMENT_3D($,#543,#440,#441);
#355=AXIS2_PLACEMENT_3D($,#547,#443,#444);
#356=AXIS2_PLACEMENT_3D($,#550,#446,#447);
#357=AXIS2_PLACEMENT_3D($,#551,#448,#449);
#358=AXIS2_PLACEMENT_3D($,#553,#450,#451);
#359=AXIS2_PLACEMENT_3D($,#555,#452,#453);
#360=AXIS2_PLACEMENT_3D($,#556,#454,#455);
#361=AXIS2_PLACEMENT_3D($,#558,#456,#457);
#362=AXIS2_PLACEMENT_3D($,#560,#458,#459);
#363=AXIS2_PLACEMENT_3D($,#561,#460,#461);
#364=AXIS2_PLACEMENT_3D($,#563,#462,#463);
#365=AXIS2_PLACEMENT_3D($,#564,#464,#465);
#366=AXIS2_PLACEMENT_3D($,#565,#466,#467);
#367=AXIS2_PLACEMENT_3D($,#568,#470,#471);
#368=AXIS2_PLACEMENT_3D($,#569,#472,#473);
#369=AXIS2_PLACEMENT_3D($,#570,#474,#475);
#370=AXIS2_PLACEMENT_3D($,#571,#476,#477);
#371=AXIS2_PLACEMENT_3D($,#573,#479,#480);
#372=AXIS2_PLACEMENT_3D($,#574,#481,#482);
#373=AXIS2_PLACEMENT_3D($,#575,#483,#484);
#374=AXIS2_PLACEMENT_3D($,#576,#485,#486);
#375=AXIS2_PLACEMENT_3D($,#577,#487,#488);
#376=AXIS2_PLACEMENT_3D('placement',#578,#489,#490);
#377=AXIS2_PLACEMENT_3D($,#579,#491,#492);
#378=DIRECTION('axis',(0.,0.,1.));
#379=DIRECTION('refdir',(1.,0.,0.));
#380=DIRECTION('center_axis',(1.,0.,0.));
#381=DIRECTION('ref_axis',(0.,0.,-1.));
#382=DIRECTION('center_axis',(0.,0.,-1.));
#383=DIRECTION('ref_axis',(-1.,0.,0.));
#384=DIRECTION('center_axis',(0.,0.573462344363328,-0.81923192051904));
#385=DIRECTION('ref_axis',(-1.,0.,0.));
#386=DIRECTION('center_axis',(-1.,0.,0.));
#387=DIRECTION('ref_axis',(0.,0.,1.));
#388=DIRECTION('center_axis',(0.,0.573462344363328,-0.81923192051904));
#389=DIRECTION('ref_axis',(-1.,0.,0.));
#390=DIRECTION('center_axis',(0.,-1.66533453693773E-016,-1.));
#391=DIRECTION('ref_axis',(-1.,0.,0.));
#392=DIRECTION('center_axis',(-1.,0.,0.));
#393=DIRECTION('ref_axis',(0.,0.,1.));
#394=DIRECTION('center_axis',(0.,0.,-1.));
#395=DIRECTION('ref_axis',(-1.,0.,0.));
#396=DIRECTION('center_axis',(0.,-0.573462344363328,-0.819231920519041));
#397=DIRECTION('ref_axis',(-1.,0.,0.));
#398=DIRECTION('center_axis',(1.,0.,0.));
#399=DIRECTION('ref_axis',(0.,0.,-1.));
#400=DIRECTION('center_axis',(0.,-0.573462344363328,-0.819231920519041));
#401=DIRECTION('ref_axis',(-1.,0.,0.));
#402=DIRECTION('center_axis',(0.,-1.11022302462516E-016,-1.));
#403=DIRECTION('ref_axis',(-1.,0.,0.));
#404=DIRECTION('center_axis',(0.,4.4779640723845E-017,-1.));
#405=DIRECTION('ref_axis',(0.,1.,4.4779640723845E-017));
#406=DIRECTION('center_axis',(0.,0.,1.));
#407=DIRECTION('ref_axis',(-1.,0.,0.));
#408=DIRECTION('center_axis',(0.,-1.66533453693773E-016,-1.));
#409=DIRECTION('ref_axis',(-1.,0.,0.));
#410=DIRECTION('center_axis',(0.,0.,-1.));
#411=DIRECTION('ref_axis',(-1.,0.,0.));
#412=DIRECTION('center_axis',(0.,0.,-1.));
#413=DIRECTION('ref_axis',(-1.,0.,0.));
#414=DIRECTION('center_axis',(0.,0.,-1.));
#415=DIRECTION('ref_axis',(-1.,0.,0.));
#416=DIRECTION('center_axis',(0.,0.,1.));
#417=DIRECTION('ref_axis',(1.,0.,0.));
#418=DIRECTION('center_axis',(0.,0.,-1.));
#419=DIRECTION('ref_axis',(-1.,0.,0.));
#420=DIRECTION('center_axis',(0.,0.573462344363328,-0.819231920519041));
#421=DIRECTION('ref_axis',(0.,0.819231920519041,0.573462344363328));
#422=DIRECTION('center_axis',(0.,2.89962547310988E-017,1.));
#423=DIRECTION('ref_axis',(0.,-1.,2.89962547310988E-017));
#424=DIRECTION('center_axis',(0.,0.,-1.));
#425=DIRECTION('ref_axis',(-1.,0.,0.));
#426=DIRECTION('center_axis',(0.,-0.573462344363328,-0.81923192051904));
#427=DIRECTION('ref_axis',(0.,0.81923192051904,-0.573462344363328));
#428=DIRECTION('center_axis',(0.,0.,-1.));
#429=DIRECTION('ref_axis',(-1.,0.,0.));
#430=DIRECTION('center_axis',(0.,-1.11022302462516E-016,-1.));
#431=DIRECTION('ref_axis',(-1.,0.,0.));
#432=DIRECTION('center_axis',(0.,1.22460635382238E-016,-1.));
#433=DIRECTION('ref_axis',(0.,1.,1.22460635382238E-016));
#434=DIRECTION('center_axis',(0.,1.22460635382238E-016,-1.));
#435=DIRECTION('ref_axis',(0.,1.,1.22460635382238E-016));
#436=DIRECTION('center_axis',(0.,1.22460635382238E-016,-1.));
#437=DIRECTION('ref_axis',(0.,1.,1.22460635382238E-016));
#438=DIRECTION('center_axis',(0.,1.22460635382238E-016,-1.));
#439=DIRECTION('ref_axis',(0.,1.,1.22460635382238E-016));
#440=DIRECTION('center_axis',(0.,1.22460635382238E-016,-1.));
#441=DIRECTION('ref_axis',(0.,1.,1.22460635382238E-016));
#442=DIRECTION($,(0.,0.,1.));
#443=DIRECTION('center_axis',(0.,0.,1.));
#444=DIRECTION('ref_axis',(1.,0.,0.));
#445=DIRECTION($,(0.,0.,1.));
#446=DIRECTION('center_axis',(0.,1.22460635382238E-016,-1.));
#447=DIRECTION('ref_axis',(0.,1.,1.22460635382238E-016));
#448=DIRECTION('center_axis',(0.,1.22460635382238E-016,-1.));
#449=DIRECTION('ref_axis',(0.,1.,1.22460635382238E-016));
#450=DIRECTION('center_axis',(0.,1.22460635382238E-016,-1.));
#451=DIRECTION('ref_axis',(0.,1.,1.22460635382238E-016));
#452=DIRECTION('center_axis',(0.,1.22460635382238E-016,-1.));
#453=DIRECTION('ref_axis',(0.,1.,1.22460635382238E-016));
#454=DIRECTION('center_axis',(0.,1.22460635382238E-016,-1.));
#455=DIRECTION('ref_axis',(0.,1.,1.22460635382238E-016));
#456=DIRECTION('center_axis',(0.,1.22460635382238E-016,-1.));
#457=DIRECTION('ref_axis',(0.,1.,1.22460635382238E-016));
#458=DIRECTION('center_axis',(0.,1.22460635382238E-016,-1.));
#459=DIRECTION('ref_axis',(0.,1.,1.22460635382238E-016));
#460=DIRECTION('center_axis',(0.,4.4779640723845E-017,-1.));
#461=DIRECTION('ref_axis',(0.,1.,4.4779640723845E-017));
#462=DIRECTION('center_axis',(0.,0.,1.));
#463=DIRECTION('ref_axis',(-1.,0.,0.));
#464=DIRECTION('center_axis',(0.,-1.22460635382238E-016,1.));
#465=DIRECTION('ref_axis',(0.,-1.,-2.22044604925031E-016));
#466=DIRECTION('center_axis',(0.,-1.22460635382238E-016,1.));
#467=DIRECTION('ref_axis',(0.,-1.,0.));
#468=DIRECTION($,(0.,-1.,0.));
#469=DIRECTION($,(0.,-1.,0.));
#470=DIRECTION('center_axis',(0.,1.22460635382238E-016,-1.));
#471=DIRECTION('ref_axis',(0.,1.,0.));
#472=DIRECTION('center_axis',(0.,-1.22460635382238E-016,1.));
#473=DIRECTION('ref_axis',(0.,-1.,-1.2490009027033E-016));
#474=DIRECTION('center_axis',(0.,-1.22460635382238E-016,1.));
#475=DIRECTION('ref_axis',(0.,-1.,-1.22460635382238E-016));
#476=DIRECTION('center_axis',(-1.,0.,0.));
#477=DIRECTION('ref_axis',(0.,0.,1.));
#478=DIRECTION($,(0.,-1.,0.));
#479=DIRECTION('center_axis',(0.,0.,1.));
#480=DIRECTION('ref_axis',(1.,0.,0.));
#481=DIRECTION('center_axis',(0.,-1.11022302462516E-016,-1.));
#482=DIRECTION('ref_axis',(-1.,0.,0.));
#483=DIRECTION('center_axis',(0.,0.,-1.));
#484=DIRECTION('ref_axis',(-1.,0.,0.));
#485=DIRECTION('center_axis',(0.,0.,-1.));
#486=DIRECTION('ref_axis',(-1.,0.,0.));
#487=DIRECTION('center_axis',(0.,-1.66533453693773E-016,-1.));
#488=DIRECTION('ref_axis',(-1.,0.,0.));
#489=DIRECTION('axis',(0.,0.,1.));
#490=DIRECTION('refdir',(1.,0.,0.));
#491=DIRECTION($,(0.,0.,1.));
#492=DIRECTION($,(1.,0.,0.));
#493=CARTESIAN_POINT('',(0.,0.,0.));
#494=CARTESIAN_POINT('Origin',(0.,4.7,-28.7391110767236));
#495=CARTESIAN_POINT('',(0.5,0.7,-28.7391110767236));
#496=CARTESIAN_POINT('Origin',(0.,0.7,-28.7391110767236));
#497=CARTESIAN_POINT('',(0.,1.83268827818336,-30.7462292819952));
#498=CARTESIAN_POINT('Origin',(0.,1.42307231792384,-31.0329604541769));
#499=CARTESIAN_POINT('Origin',(0.,0.200000000000001,-36.2608889232764));
#500=CARTESIAN_POINT('',(6.12303176911189E-017,3.06731172181664,-34.2537707180048));
#501=CARTESIAN_POINT('Origin',(0.,3.47692768207616,-33.9670395458231));
#502=CARTESIAN_POINT('',(6.12303176911189E-017,3.7,-36.2608889232764));
#503=CARTESIAN_POINT('Origin',(0.,4.2,-36.2608889232764));
#504=CARTESIAN_POINT('Origin',(0.,-4.55,-28.7391110767236));
#505=CARTESIAN_POINT('',(0.,-1.2,-28.7391110767236));
#506=CARTESIAN_POINT('Origin',(0.,-0.55,-28.7391110767236));
#507=CARTESIAN_POINT('',(7.95994129984545E-017,-1.80557306626122,-30.6602099303407));
#508=CARTESIAN_POINT('Origin',(0.,-1.27307231792384,-31.0329604541769));
#509=CARTESIAN_POINT('Origin',(0.,-0.0499999999999997,-36.2608889232764));
#510=CARTESIAN_POINT('',(0.,-2.79442693373879,-34.3397900696592));
#511=CARTESIAN_POINT('Origin',(0.,-3.32692768207616,-33.9670395458231));
#512=CARTESIAN_POINT('',(-0.65,-4.05,-36.2608889232764));
#513=CARTESIAN_POINT('Origin',(0.,-4.05,-36.2608889232764));
#514=CARTESIAN_POINT('Origin',(0.,4.2,-36.2608889232764));
#515=CARTESIAN_POINT('',(0.,4.7,-67.));
#516=CARTESIAN_POINT('Origin',(0.,4.2,-67.));
#517=CARTESIAN_POINT('',(0.,4.7,-75.));
#518=CARTESIAN_POINT('Origin',(0.,4.2,-75.));
#519=CARTESIAN_POINT('Origin',(0.,4.2,-37.));
#520=CARTESIAN_POINT('',(-1.,4.2,-37.));
#521=CARTESIAN_POINT('Origin',(0.,4.2,-37.));
#522=CARTESIAN_POINT('',(-1.,4.2,-67.));
#523=CARTESIAN_POINT('Origin',(0.,4.2,-67.));
#524=CARTESIAN_POINT('Origin',(0.,0.7,-28.7391110767236));
#525=CARTESIAN_POINT('',(0.5,0.7,-25.));
#526=CARTESIAN_POINT('Origin',(0.,0.7,-25.));
#527=CARTESIAN_POINT('Origin',(0.,1.42307231792384,-31.0329604541769));
#528=CARTESIAN_POINT('Origin',(0.,-0.55,-28.7391110767236));
#529=CARTESIAN_POINT('',(0.,-1.2,-25.));
#530=CARTESIAN_POINT('Origin',(0.,-0.55,-25.));
#531=CARTESIAN_POINT('Origin',(0.,-1.27307231792384,-31.0329604541769));
#532=CARTESIAN_POINT('Origin',(0.,-4.05,-36.2608889232764));
#533=CARTESIAN_POINT('',(-0.65,-4.05,-75.));
#534=CARTESIAN_POINT('Origin',(0.,-4.05,-75.));
#535=CARTESIAN_POINT('Origin',(0.,0.,-25.));
#536=CARTESIAN_POINT('',(0.,0.549999999999997,6.73533494602308E-017));
#537=CARTESIAN_POINT('Origin',(0.,-3.06151588455594E-015,0.));
#538=CARTESIAN_POINT('',(0.,0.549999999999997,-0.0999999999999993));
#539=CARTESIAN_POINT('Origin',(0.,-3.04926982101772E-015,-0.0999999999999994));
#540=CARTESIAN_POINT('Origin',(0.,0.,-25.));
#541=CARTESIAN_POINT('',(1.5,-1.32287565553229,-5.));
#542=CARTESIAN_POINT('',(1.5,1.32287565553229,-5.));
#543=CARTESIAN_POINT('Origin',(0.,-2.44921270764475E-015,-5.));
#544=CARTESIAN_POINT('',(1.5,1.32287565553229,-17.));
#545=CARTESIAN_POINT($,(1.5,1.32287565553229,-17.));
#546=CARTESIAN_POINT('',(1.5,-1.32287565553229,-17.));
#547=CARTESIAN_POINT('Origin',(0.,-2.44921270764475E-015,-17.));
#548=CARTESIAN_POINT($,(1.5,-1.32287565553229,-17.));
#549=CARTESIAN_POINT('',(0.,2.,-25.));
#550=CARTESIAN_POINT('Origin',(0.,2.99932144364427E-032,-25.));
#551=CARTESIAN_POINT('Origin',(0.,0.,-25.));
#552=CARTESIAN_POINT('',(0.,1.5,-1.2));
#553=CARTESIAN_POINT('Origin',(0.,-2.91456312209726E-015,-1.2));
#554=CARTESIAN_POINT('',(1.5,-2.38524477946811E-015,-5.));
#555=CARTESIAN_POINT('Origin',(0.,-2.44921270764475E-015,-5.));
#556=CARTESIAN_POINT('Origin',(0.,0.,-25.));
#557=CARTESIAN_POINT('',(0.,1.15,1.40829730689574E-016));
#558=CARTESIAN_POINT('Origin',(0.,-3.06151588455594E-015,0.));
#559=CARTESIAN_POINT('',(0.,1.15,-1.2));
#560=CARTESIAN_POINT('Origin',(0.,-2.91456312209726E-015,-1.2));
#561=CARTESIAN_POINT('Origin',(0.,4.2,-36.2608889232764));
#562=CARTESIAN_POINT('',(0.,4.7,-37.));
#563=CARTESIAN_POINT('Origin',(0.,4.2,-37.));
#564=CARTESIAN_POINT('Origin',(0.,1.15,-1.2));
#565=CARTESIAN_POINT('Origin',(0.,1.5,-5.));
#566=CARTESIAN_POINT($,(1.5,1.32287565553229,-5.));
#567=CARTESIAN_POINT($,(1.5,1.32287565553229,-5.));
#568=CARTESIAN_POINT('Origin',(0.,2.,-25.));
#569=CARTESIAN_POINT('Origin',(0.,0.549999999999997,-0.0999999999999997));
#570=CARTESIAN_POINT('Origin',(0.,0.549999999999997,-3.67381906146714E-017));
#571=CARTESIAN_POINT('Origin',(1.5,1.32287565553229,-17.));
#572=CARTESIAN_POINT($,(1.5,1.32287565553229,-17.));
#573=CARTESIAN_POINT('Origin',(0.,-2.44921270764475E-015,-17.));
#574=CARTESIAN_POINT('Origin',(0.,-4.05,-75.));
#575=CARTESIAN_POINT('Origin',(0.,4.2,-37.));
#576=CARTESIAN_POINT('Origin',(0.,4.2,-67.));
#577=CARTESIAN_POINT('Origin',(0.,4.2,-75.));
#578=CARTESIAN_POINT('',(0.,0.,0.));
#579=CARTESIAN_POINT($,(0.,0.,0.));
#580=UNCERTAINTY_MEASURE_WITH_UNIT(LENGTH_MEASURE(0.01),#584,
'DISTANCE_ACCURACY_VALUE',
'Maximum model space distance between geometric entities at asserted c
onnectivities');
#581=UNCERTAINTY_MEASURE_WITH_UNIT(LENGTH_MEASURE(0.01),#584,
'DISTANCE_ACCURACY_VALUE',
'Maximum model space distance between geometric entities at asserted c
onnectivities');
#582=(
GEOMETRIC_REPRESENTATION_CONTEXT(3)
GLOBAL_UNCERTAINTY_ASSIGNED_CONTEXT((#580))
GLOBAL_UNIT_ASSIGNED_CONTEXT((#584,#586,#585))
REPRESENTATION_CONTEXT('','3D')
);
#583=(
GEOMETRIC_REPRESENTATION_CONTEXT(3)
GLOBAL_UNCERTAINTY_ASSIGNED_CONTEXT((#581))
GLOBAL_UNIT_ASSIGNED_CONTEXT((#584,#586,#585))
REPRESENTATION_CONTEXT('','3D')
);
#584=(
LENGTH_UNIT()
NAMED_UNIT(*)
SI_UNIT(.MILLI.,.METRE.)
);
#585=(
NAMED_UNIT(*)
SI_UNIT($,.STERADIAN.)
SOLID_ANGLE_UNIT()
);
#586=(
NAMED_UNIT(*)
PLANE_ANGLE_UNIT()
SI_UNIT($,.RADIAN.)
);
#587=SHAPE_DEFINITION_REPRESENTATION(#589,#592);
#588=SHAPE_DEFINITION_REPRESENTATION(#590,#593);
#589=PRODUCT_DEFINITION_SHAPE('',$,#595);
#590=PRODUCT_DEFINITION_SHAPE('',$,#596);
#591=PRODUCT_DEFINITION_SHAPE($,$,#13);
#592=SHAPE_REPRESENTATION('',(#323),#582);
#593=SHAPE_REPRESENTATION('',(#376,#377),#583);
#594=PRODUCT_DEFINITION_CONTEXT('3D Mechanical Parts',#600,'design');
#595=PRODUCT_DEFINITION('LT207017_','LT207017_',#597,#594);
#596=PRODUCT_DEFINITION('LT207017','LT207017',#598,#594);
#597=PRODUCT_DEFINITION_FORMATION('',$,#602);
#598=PRODUCT_DEFINITION_FORMATION('',$,#603);
#599=APPLICATION_PROTOCOL_DEFINITION('international standard',
'automotive_design',2009,#600);
#600=APPLICATION_CONTEXT(
'Core Data for Automotive Mechanical Design Process');
#601=PRODUCT_CONTEXT('3D Mechanical Parts',#600,'mechanical');
#602=PRODUCT('LT207017_','LT207017_',$,(#601));
#603=PRODUCT('LT207017','LT207017',$,(#601));
#604=PRESENTATION_STYLE_ASSIGNMENT((#605));
#605=SURFACE_STYLE_USAGE(.BOTH.,#606);
#606=SURFACE_SIDE_STYLE($,(#607));
#607=SURFACE_STYLE_FILL_AREA(#608);
#608=FILL_AREA_STYLE($,(#609));
#609=FILL_AREA_STYLE_COLOUR($,#610);
#610=COLOUR_RGB('',0.749019607843137,0.749019607843137,0.749019607843137);
ENDSEC;
END-ISO-10303-21;
