ISO-10303-21;
HEADER;
/* Generated by software containing ST-Developer
 * from STEP Tools, Inc. (www.steptools.com) 
 */

FILE_DESCRIPTION(
/* description */ (''),
/* implementation_level */ '2;1');

FILE_NAME(
/* name */ '\\\\dserver\\userdata$\\Wattenberg\\Desktop\\AY000008.stp',

/* time_stamp */ '2015-01-15T09:01:27+01:00',
/* author */ ('Wattenberg'),
/* organization */ (''),
/* preprocessor_version */ 'ST-DEVELOPER v15.2',
/* originating_system */ 'Autodesk Inventor 2014',
/* authorisation */ '');

FILE_SCHEMA (('AUTOMOTIVE_DESIGN { 1 0 10303 214 3 1 1 }'));
ENDSEC;

DATA;
#10=SHAPE_REPRESENTATION_RELATIONSHIP('SRR','None',#493,#11);
#11=ADVANCED_BREP_SHAPE_REPRESENTATION($,(#292),#484);
#12=STYLED_ITEM($,(#501),#292);
#13=LINE($,#436,#35);
#14=LINE($,#438,#36);
#15=LINE($,#440,#37);
#16=LINE($,#441,#38);
#17=LINE($,#444,#39);
#18=LINE($,#446,#40);
#19=LINE($,#447,#41);
#20=LINE($,#450,#42);
#21=LINE($,#452,#43);
#22=LINE($,#453,#44);
#23=LINE($,#459,#45);
#24=LINE($,#462,#46);
#25=LINE($,#464,#47);
#26=LINE($,#465,#48);
#27=LINE($,#468,#49);
#28=LINE($,#470,#50);
#29=LINE($,#471,#51);
#30=LINE($,#474,#52);
#31=LINE($,#476,#53);
#32=LINE($,#477,#54);
#33=LINE($,#479,#55);
#34=LINE($,#480,#56);
#35=VECTOR($,#361,25.);
#36=VECTOR($,#362,10.);
#37=VECTOR($,#363,25.);
#38=VECTOR($,#364,10.);
#39=VECTOR($,#367,6.5);
#40=VECTOR($,#368,6.5);
#41=VECTOR($,#369,10.);
#42=VECTOR($,#372,9.88466063387559);
#43=VECTOR($,#373,9.88466063387559);
#44=VECTOR($,#374,10.);
#45=VECTOR($,#381,10.);
#46=VECTOR($,#384,9.88466063387559);
#47=VECTOR($,#385,9.88466063387559);
#48=VECTOR($,#386,10.);
#49=VECTOR($,#389,6.5);
#50=VECTOR($,#390,6.5);
#51=VECTOR($,#391,10.);
#52=VECTOR($,#394,25.);
#53=VECTOR($,#395,25.);
#54=VECTOR($,#396,10.);
#55=VECTOR($,#399,15.);
#56=VECTOR($,#400,15.);
#57=PLANE($,#297);
#58=PLANE($,#304);
#59=PLANE($,#311);
#60=PLANE($,#312);
#61=PLANE($,#313);
#62=PLANE($,#317);
#63=PLANE($,#318);
#64=PLANE($,#319);
#65=PLANE($,#320);
#66=PLANE($,#321);
#67=PLANE($,#322);
#68=FACE_BOUND($,#99,.T.);
#69=FACE_BOUND($,#101,.T.);
#70=FACE_BOUND($,#103,.T.);
#71=FACE_BOUND($,#105,.T.);
#72=FACE_BOUND($,#107,.T.);
#73=FACE_BOUND($,#109,.T.);
#74=FACE_BOUND($,#111,.T.);
#75=FACE_BOUND($,#112,.T.);
#76=FACE_BOUND($,#113,.T.);
#77=FACE_BOUND($,#114,.T.);
#78=FACE_BOUND($,#116,.T.);
#79=FACE_BOUND($,#117,.T.);
#80=FACE_BOUND($,#119,.T.);
#81=FACE_BOUND($,#120,.T.);
#82=FACE_BOUND($,#122,.T.);
#83=FACE_BOUND($,#123,.T.);
#84=FACE_BOUND($,#124,.T.);
#85=FACE_OUTER_BOUND($,#98,.T.);
#86=FACE_OUTER_BOUND($,#100,.T.);
#87=FACE_OUTER_BOUND($,#102,.T.);
#88=FACE_OUTER_BOUND($,#104,.T.);
#89=FACE_OUTER_BOUND($,#106,.T.);
#90=FACE_OUTER_BOUND($,#108,.T.);
#91=FACE_OUTER_BOUND($,#110,.T.);
#92=FACE_OUTER_BOUND($,#115,.T.);
#93=FACE_OUTER_BOUND($,#118,.T.);
#94=FACE_OUTER_BOUND($,#121,.T.);
#95=FACE_OUTER_BOUND($,#125,.T.);
#96=FACE_OUTER_BOUND($,#126,.T.);
#97=FACE_OUTER_BOUND($,#127,.T.);
#98=EDGE_LOOP($,(#200));
#99=EDGE_LOOP($,(#201));
#100=EDGE_LOOP($,(#202));
#101=EDGE_LOOP($,(#203));
#102=EDGE_LOOP($,(#204));
#103=EDGE_LOOP($,(#205));
#104=EDGE_LOOP($,(#206));
#105=EDGE_LOOP($,(#207));
#106=EDGE_LOOP($,(#208));
#107=EDGE_LOOP($,(#209));
#108=EDGE_LOOP($,(#210));
#109=EDGE_LOOP($,(#211));
#110=EDGE_LOOP($,(#212));
#111=EDGE_LOOP($,(#213));
#112=EDGE_LOOP($,(#214));
#113=EDGE_LOOP($,(#215));
#114=EDGE_LOOP($,(#216,#217,#218,#219));
#115=EDGE_LOOP($,(#220,#221,#222,#223));
#116=EDGE_LOOP($,(#224));
#117=EDGE_LOOP($,(#225,#226,#227,#228));
#118=EDGE_LOOP($,(#229,#230,#231,#232));
#119=EDGE_LOOP($,(#233));
#120=EDGE_LOOP($,(#234,#235,#236,#237));
#121=EDGE_LOOP($,(#238,#239,#240,#241));
#122=EDGE_LOOP($,(#242));
#123=EDGE_LOOP($,(#243));
#124=EDGE_LOOP($,(#244,#245,#246,#247));
#125=EDGE_LOOP($,(#248,#249,#250,#251));
#126=EDGE_LOOP($,(#252,#253,#254,#255,#256,#257,#258,#259));
#127=EDGE_LOOP($,(#260,#261,#262,#263,#264,#265,#266,#267));
#128=CIRCLE($,#295,2.3);
#129=CIRCLE($,#296,2.3);
#130=CIRCLE($,#298,4.);
#131=CIRCLE($,#300,4.);
#132=CIRCLE($,#302,2.3);
#133=CIRCLE($,#303,2.3);
#134=CIRCLE($,#305,4.);
#135=CIRCLE($,#306,2.3);
#136=CIRCLE($,#308,4.);
#137=CIRCLE($,#310,2.3);
#138=CIRCLE($,#315,2.8);
#139=CIRCLE($,#316,2.8);
#140=VERTEX_POINT($,#407);
#141=VERTEX_POINT($,#409);
#142=VERTEX_POINT($,#412);
#143=VERTEX_POINT($,#415);
#144=VERTEX_POINT($,#418);
#145=VERTEX_POINT($,#420);
#146=VERTEX_POINT($,#423);
#147=VERTEX_POINT($,#425);
#148=VERTEX_POINT($,#428);
#149=VERTEX_POINT($,#431);
#150=VERTEX_POINT($,#434);
#151=VERTEX_POINT($,#435);
#152=VERTEX_POINT($,#437);
#153=VERTEX_POINT($,#439);
#154=VERTEX_POINT($,#443);
#155=VERTEX_POINT($,#445);
#156=VERTEX_POINT($,#449);
#157=VERTEX_POINT($,#451);
#158=VERTEX_POINT($,#455);
#159=VERTEX_POINT($,#457);
#160=VERTEX_POINT($,#461);
#161=VERTEX_POINT($,#463);
#162=VERTEX_POINT($,#467);
#163=VERTEX_POINT($,#469);
#164=VERTEX_POINT($,#473);
#165=VERTEX_POINT($,#475);
#166=EDGE_CURVE($,#140,#140,#128,.T.);
#167=EDGE_CURVE($,#141,#141,#129,.T.);
#168=EDGE_CURVE($,#142,#142,#130,.T.);
#169=EDGE_CURVE($,#143,#143,#131,.T.);
#170=EDGE_CURVE($,#144,#144,#132,.T.);
#171=EDGE_CURVE($,#145,#145,#133,.T.);
#172=EDGE_CURVE($,#146,#146,#134,.T.);
#173=EDGE_CURVE($,#147,#147,#135,.T.);
#174=EDGE_CURVE($,#148,#148,#136,.T.);
#175=EDGE_CURVE($,#149,#149,#137,.T.);
#176=EDGE_CURVE($,#150,#151,#13,.T.);
#177=EDGE_CURVE($,#151,#152,#14,.T.);
#178=EDGE_CURVE($,#153,#152,#15,.T.);
#179=EDGE_CURVE($,#150,#153,#16,.T.);
#180=EDGE_CURVE($,#154,#150,#17,.T.);
#181=EDGE_CURVE($,#155,#153,#18,.T.);
#182=EDGE_CURVE($,#154,#155,#19,.T.);
#183=EDGE_CURVE($,#156,#154,#20,.T.);
#184=EDGE_CURVE($,#157,#155,#21,.T.);
#185=EDGE_CURVE($,#156,#157,#22,.T.);
#186=EDGE_CURVE($,#158,#156,#138,.T.);
#187=EDGE_CURVE($,#159,#157,#139,.T.);
#188=EDGE_CURVE($,#158,#159,#23,.T.);
#189=EDGE_CURVE($,#160,#158,#24,.T.);
#190=EDGE_CURVE($,#161,#159,#25,.T.);
#191=EDGE_CURVE($,#160,#161,#26,.T.);
#192=EDGE_CURVE($,#162,#160,#27,.T.);
#193=EDGE_CURVE($,#163,#161,#28,.T.);
#194=EDGE_CURVE($,#162,#163,#29,.T.);
#195=EDGE_CURVE($,#164,#162,#30,.T.);
#196=EDGE_CURVE($,#165,#163,#31,.T.);
#197=EDGE_CURVE($,#164,#165,#32,.T.);
#198=EDGE_CURVE($,#151,#164,#33,.T.);
#199=EDGE_CURVE($,#152,#165,#34,.T.);
#200=ORIENTED_EDGE($,*,*,#166,.T.);
#201=ORIENTED_EDGE($,*,*,#167,.F.);
#202=ORIENTED_EDGE($,*,*,#168,.T.);
#203=ORIENTED_EDGE($,*,*,#166,.F.);
#204=ORIENTED_EDGE($,*,*,#169,.F.);
#205=ORIENTED_EDGE($,*,*,#168,.F.);
#206=ORIENTED_EDGE($,*,*,#170,.F.);
#207=ORIENTED_EDGE($,*,*,#171,.F.);
#208=ORIENTED_EDGE($,*,*,#172,.T.);
#209=ORIENTED_EDGE($,*,*,#173,.F.);
#210=ORIENTED_EDGE($,*,*,#174,.F.);
#211=ORIENTED_EDGE($,*,*,#172,.F.);
#212=ORIENTED_EDGE($,*,*,#175,.F.);
#213=ORIENTED_EDGE($,*,*,#173,.T.);
#214=ORIENTED_EDGE($,*,*,#170,.T.);
#215=ORIENTED_EDGE($,*,*,#175,.T.);
#216=ORIENTED_EDGE($,*,*,#176,.T.);
#217=ORIENTED_EDGE($,*,*,#177,.T.);
#218=ORIENTED_EDGE($,*,*,#178,.F.);
#219=ORIENTED_EDGE($,*,*,#179,.F.);
#220=ORIENTED_EDGE($,*,*,#180,.T.);
#221=ORIENTED_EDGE($,*,*,#179,.T.);
#222=ORIENTED_EDGE($,*,*,#181,.F.);
#223=ORIENTED_EDGE($,*,*,#182,.F.);
#224=ORIENTED_EDGE($,*,*,#171,.T.);
#225=ORIENTED_EDGE($,*,*,#183,.T.);
#226=ORIENTED_EDGE($,*,*,#182,.T.);
#227=ORIENTED_EDGE($,*,*,#184,.F.);
#228=ORIENTED_EDGE($,*,*,#185,.F.);
#229=ORIENTED_EDGE($,*,*,#186,.T.);
#230=ORIENTED_EDGE($,*,*,#185,.T.);
#231=ORIENTED_EDGE($,*,*,#187,.F.);
#232=ORIENTED_EDGE($,*,*,#188,.F.);
#233=ORIENTED_EDGE($,*,*,#167,.T.);
#234=ORIENTED_EDGE($,*,*,#189,.T.);
#235=ORIENTED_EDGE($,*,*,#188,.T.);
#236=ORIENTED_EDGE($,*,*,#190,.F.);
#237=ORIENTED_EDGE($,*,*,#191,.F.);
#238=ORIENTED_EDGE($,*,*,#192,.T.);
#239=ORIENTED_EDGE($,*,*,#191,.T.);
#240=ORIENTED_EDGE($,*,*,#193,.F.);
#241=ORIENTED_EDGE($,*,*,#194,.F.);
#242=ORIENTED_EDGE($,*,*,#169,.T.);
#243=ORIENTED_EDGE($,*,*,#174,.T.);
#244=ORIENTED_EDGE($,*,*,#195,.T.);
#245=ORIENTED_EDGE($,*,*,#194,.T.);
#246=ORIENTED_EDGE($,*,*,#196,.F.);
#247=ORIENTED_EDGE($,*,*,#197,.F.);
#248=ORIENTED_EDGE($,*,*,#198,.T.);
#249=ORIENTED_EDGE($,*,*,#197,.T.);
#250=ORIENTED_EDGE($,*,*,#199,.F.);
#251=ORIENTED_EDGE($,*,*,#177,.F.);
#252=ORIENTED_EDGE($,*,*,#199,.T.);
#253=ORIENTED_EDGE($,*,*,#196,.T.);
#254=ORIENTED_EDGE($,*,*,#193,.T.);
#255=ORIENTED_EDGE($,*,*,#190,.T.);
#256=ORIENTED_EDGE($,*,*,#187,.T.);
#257=ORIENTED_EDGE($,*,*,#184,.T.);
#258=ORIENTED_EDGE($,*,*,#181,.T.);
#259=ORIENTED_EDGE($,*,*,#178,.T.);
#260=ORIENTED_EDGE($,*,*,#198,.F.);
#261=ORIENTED_EDGE($,*,*,#176,.F.);
#262=ORIENTED_EDGE($,*,*,#180,.F.);
#263=ORIENTED_EDGE($,*,*,#183,.F.);
#264=ORIENTED_EDGE($,*,*,#186,.F.);
#265=ORIENTED_EDGE($,*,*,#189,.F.);
#266=ORIENTED_EDGE($,*,*,#192,.F.);
#267=ORIENTED_EDGE($,*,*,#195,.F.);
#268=CYLINDRICAL_SURFACE($,#294,2.3);
#269=CYLINDRICAL_SURFACE($,#299,4.);
#270=CYLINDRICAL_SURFACE($,#301,2.3);
#271=CYLINDRICAL_SURFACE($,#307,4.);
#272=CYLINDRICAL_SURFACE($,#309,2.3);
#273=CYLINDRICAL_SURFACE($,#314,2.8);
#274=ADVANCED_FACE($,(#85,#68),#268,.F.);
#275=ADVANCED_FACE($,(#86,#69),#57,.T.);
#276=ADVANCED_FACE($,(#87,#70),#269,.F.);
#277=ADVANCED_FACE($,(#88,#71),#270,.F.);
#278=ADVANCED_FACE($,(#89,#72),#58,.T.);
#279=ADVANCED_FACE($,(#90,#73),#271,.F.);
#280=ADVANCED_FACE($,(#91,#74),#272,.F.);
#281=ADVANCED_FACE($,(#75,#76,#77),#59,.T.);
#282=ADVANCED_FACE($,(#92),#60,.T.);
#283=ADVANCED_FACE($,(#78,#79),#61,.T.);
#284=ADVANCED_FACE($,(#93),#273,.F.);
#285=ADVANCED_FACE($,(#80,#81),#62,.T.);
#286=ADVANCED_FACE($,(#94),#63,.T.);
#287=ADVANCED_FACE($,(#82,#83,#84),#64,.T.);
#288=ADVANCED_FACE($,(#95),#65,.T.);
#289=ADVANCED_FACE($,(#96),#66,.T.);
#290=ADVANCED_FACE($,(#97),#67,.F.);
#291=CLOSED_SHELL($,(#274,#275,#276,#277,#278,#279,#280,#281,#282,#283,
#284,#285,#286,#287,#288,#289,#290));
#292=MANIFOLD_SOLID_BREP('Volumenk\X\F6rper1',#291);
#293=AXIS2_PLACEMENT_3D('placement',#405,#323,#324);
#294=AXIS2_PLACEMENT_3D($,#406,#325,#326);
#295=AXIS2_PLACEMENT_3D($,#408,#327,#328);
#296=AXIS2_PLACEMENT_3D($,#410,#329,#330);
#297=AXIS2_PLACEMENT_3D($,#411,#331,#332);
#298=AXIS2_PLACEMENT_3D($,#413,#333,#334);
#299=AXIS2_PLACEMENT_3D($,#414,#335,#336);
#300=AXIS2_PLACEMENT_3D($,#416,#337,#338);
#301=AXIS2_PLACEMENT_3D($,#417,#339,#340);
#302=AXIS2_PLACEMENT_3D($,#419,#341,#342);
#303=AXIS2_PLACEMENT_3D($,#421,#343,#344);
#304=AXIS2_PLACEMENT_3D($,#422,#345,#346);
#305=AXIS2_PLACEMENT_3D($,#424,#347,#348);
#306=AXIS2_PLACEMENT_3D($,#426,#349,#350);
#307=AXIS2_PLACEMENT_3D($,#427,#351,#352);
#308=AXIS2_PLACEMENT_3D($,#429,#353,#354);
#309=AXIS2_PLACEMENT_3D($,#430,#355,#356);
#310=AXIS2_PLACEMENT_3D($,#432,#357,#358);
#311=AXIS2_PLACEMENT_3D($,#433,#359,#360);
#312=AXIS2_PLACEMENT_3D($,#442,#365,#366);
#313=AXIS2_PLACEMENT_3D($,#448,#370,#371);
#314=AXIS2_PLACEMENT_3D($,#454,#375,#376);
#315=AXIS2_PLACEMENT_3D($,#456,#377,#378);
#316=AXIS2_PLACEMENT_3D($,#458,#379,#380);
#317=AXIS2_PLACEMENT_3D($,#460,#382,#383);
#318=AXIS2_PLACEMENT_3D($,#466,#387,#388);
#319=AXIS2_PLACEMENT_3D($,#472,#392,#393);
#320=AXIS2_PLACEMENT_3D($,#478,#397,#398);
#321=AXIS2_PLACEMENT_3D($,#481,#401,#402);
#322=AXIS2_PLACEMENT_3D($,#482,#403,#404);
#323=DIRECTION('axis',(0.,0.,1.));
#324=DIRECTION('refdir',(1.,0.,0.));
#325=DIRECTION('center_axis',(1.,0.,0.));
#326=DIRECTION('ref_axis',(0.,0.,-1.));
#327=DIRECTION('center_axis',(1.,0.,0.));
#328=DIRECTION('ref_axis',(0.,0.,-1.));
#329=DIRECTION('center_axis',(1.,0.,0.));
#330=DIRECTION('ref_axis',(0.,0.,-1.));
#331=DIRECTION('center_axis',(1.,0.,0.));
#332=DIRECTION('ref_axis',(0.,0.,-1.));
#333=DIRECTION('center_axis',(1.,0.,0.));
#334=DIRECTION('ref_axis',(0.,0.,-1.));
#335=DIRECTION('center_axis',(1.,0.,0.));
#336=DIRECTION('ref_axis',(0.,0.,-1.));
#337=DIRECTION('center_axis',(-1.,0.,0.));
#338=DIRECTION('ref_axis',(0.,0.,-1.));
#339=DIRECTION('center_axis',(1.,0.,0.));
#340=DIRECTION('ref_axis',(0.,0.,-1.));
#341=DIRECTION('center_axis',(1.,0.,0.));
#342=DIRECTION('ref_axis',(0.,0.,-1.));
#343=DIRECTION('center_axis',(-1.,0.,0.));
#344=DIRECTION('ref_axis',(0.,0.,-1.));
#345=DIRECTION('center_axis',(1.,0.,0.));
#346=DIRECTION('ref_axis',(0.,0.,-1.));
#347=DIRECTION('center_axis',(1.,0.,0.));
#348=DIRECTION('ref_axis',(0.,0.,-1.));
#349=DIRECTION('center_axis',(1.,0.,0.));
#350=DIRECTION('ref_axis',(0.,0.,-1.));
#351=DIRECTION('center_axis',(1.,0.,0.));
#352=DIRECTION('ref_axis',(0.,0.,-1.));
#353=DIRECTION('center_axis',(-1.,0.,0.));
#354=DIRECTION('ref_axis',(0.,0.,-1.));
#355=DIRECTION('center_axis',(1.,0.,0.));
#356=DIRECTION('ref_axis',(0.,0.,-1.));
#357=DIRECTION('center_axis',(1.,0.,0.));
#358=DIRECTION('ref_axis',(0.,0.,-1.));
#359=DIRECTION('center_axis',(-1.,0.,0.));
#360=DIRECTION('ref_axis',(0.,-1.,0.));
#361=DIRECTION($,(0.,-1.,0.));
#362=DIRECTION($,(0.,0.,1.));
#363=DIRECTION($,(0.,-1.,0.));
#364=DIRECTION($,(0.,0.,1.));
#365=DIRECTION('center_axis',(0.,1.,0.));
#366=DIRECTION('ref_axis',(-1.,0.,0.));
#367=DIRECTION($,(-1.,0.,0.));
#368=DIRECTION($,(-1.,0.,0.));
#369=DIRECTION($,(0.,0.,1.));
#370=DIRECTION('center_axis',(1.,0.,0.));
#371=DIRECTION('ref_axis',(0.,1.,0.));
#372=DIRECTION($,(0.,1.,0.));
#373=DIRECTION($,(0.,1.,0.));
#374=DIRECTION($,(0.,0.,1.));
#375=DIRECTION('center_axis',(0.,0.,1.));
#376=DIRECTION('ref_axis',(0.357142857142856,-0.934049773615859,0.));
#377=DIRECTION('center_axis',(0.,0.,-1.));
#378=DIRECTION('ref_axis',(0.357142857142856,-0.934049773615859,0.));
#379=DIRECTION('center_axis',(0.,0.,-1.));
#380=DIRECTION('ref_axis',(0.357142857142856,-0.934049773615859,0.));
#381=DIRECTION($,(0.,0.,1.));
#382=DIRECTION('center_axis',(-1.,0.,0.));
#383=DIRECTION('ref_axis',(0.,-1.,0.));
#384=DIRECTION($,(0.,-1.,0.));
#385=DIRECTION($,(0.,-1.,0.));
#386=DIRECTION($,(0.,0.,1.));
#387=DIRECTION('center_axis',(0.,1.,0.));
#388=DIRECTION('ref_axis',(-1.,0.,0.));
#389=DIRECTION($,(-1.,0.,0.));
#390=DIRECTION($,(-1.,0.,0.));
#391=DIRECTION($,(0.,0.,1.));
#392=DIRECTION('center_axis',(1.,0.,0.));
#393=DIRECTION('ref_axis',(0.,1.,0.));
#394=DIRECTION($,(0.,1.,0.));
#395=DIRECTION($,(0.,1.,0.));
#396=DIRECTION($,(0.,0.,1.));
#397=DIRECTION('center_axis',(0.,-1.,0.));
#398=DIRECTION('ref_axis',(1.,0.,0.));
#399=DIRECTION($,(1.,0.,0.));
#400=DIRECTION($,(1.,0.,0.));
#401=DIRECTION('center_axis',(0.,0.,1.));
#402=DIRECTION('ref_axis',(1.,0.,0.));
#403=DIRECTION('center_axis',(0.,0.,1.));
#404=DIRECTION('ref_axis',(1.,0.,0.));
#405=CARTESIAN_POINT('',(0.,0.,0.));
#406=CARTESIAN_POINT('Origin',(-10.2933210758819,22.3772369482257,5.));
#407=CARTESIAN_POINT('',(15.8287489389629,22.3772369482257,7.3));
#408=CARTESIAN_POINT('Origin',(15.8287489389629,22.3772369482257,5.));
#409=CARTESIAN_POINT('',(14.0287489389629,22.3772369482257,7.3));
#410=CARTESIAN_POINT('Origin',(14.0287489389629,22.3772369482257,5.));
#411=CARTESIAN_POINT('Origin',(15.8287489389629,22.3772369482257,5.));
#412=CARTESIAN_POINT('',(15.8287489389629,22.3772369482257,1.));
#413=CARTESIAN_POINT('Origin',(15.8287489389629,22.3772369482257,5.));
#414=CARTESIAN_POINT('Origin',(18.1787489389629,22.3772369482257,5.));
#415=CARTESIAN_POINT('',(20.5287489389629,22.3772369482257,1.));
#416=CARTESIAN_POINT('Origin',(20.5287489389629,22.3772369482257,5.));
#417=CARTESIAN_POINT('Origin',(-10.2933210758819,22.3772369482257,5.));
#418=CARTESIAN_POINT('',(5.52874893896294,22.3772369482257,7.3));
#419=CARTESIAN_POINT('Origin',(5.52874893896294,22.3772369482257,5.));
#420=CARTESIAN_POINT('',(12.0287489389629,22.3772369482257,7.3));
#421=CARTESIAN_POINT('Origin',(12.0287489389629,22.3772369482257,5.));
#422=CARTESIAN_POINT('Origin',(15.8287489389629,7.37723694822567,5.));
#423=CARTESIAN_POINT('',(15.8287489389629,7.37723694822567,1.));
#424=CARTESIAN_POINT('Origin',(15.8287489389629,7.37723694822567,5.));
#425=CARTESIAN_POINT('',(15.8287489389629,7.37723694822567,7.3));
#426=CARTESIAN_POINT('Origin',(15.8287489389629,7.37723694822567,5.));
#427=CARTESIAN_POINT('Origin',(18.1787489389629,7.37723694822567,5.));
#428=CARTESIAN_POINT('',(20.5287489389629,7.37723694822567,1.));
#429=CARTESIAN_POINT('Origin',(20.5287489389629,7.37723694822567,5.));
#430=CARTESIAN_POINT('Origin',(-10.2933210758819,7.37723694822567,5.));
#431=CARTESIAN_POINT('',(5.52874893896294,7.37723694822567,7.3));
#432=CARTESIAN_POINT('Origin',(5.52874893896294,7.37723694822567,5.));
#433=CARTESIAN_POINT('Origin',(5.52874893896294,27.3772369482257,0.));
#434=CARTESIAN_POINT('',(5.52874893896294,27.3772369482257,0.));
#435=CARTESIAN_POINT('',(5.52874893896294,2.37723694822567,0.));
#436=CARTESIAN_POINT($,(5.52874893896294,27.3772369482257,0.));
#437=CARTESIAN_POINT('',(5.52874893896294,2.37723694822567,10.));
#438=CARTESIAN_POINT($,(5.52874893896294,2.37723694822567,0.));
#439=CARTESIAN_POINT('',(5.52874893896294,27.3772369482257,10.));
#440=CARTESIAN_POINT($,(5.52874893896294,27.3772369482257,10.));
#441=CARTESIAN_POINT($,(5.52874893896294,27.3772369482257,0.));
#442=CARTESIAN_POINT('Origin',(12.0287489389629,27.3772369482257,0.));
#443=CARTESIAN_POINT('',(12.0287489389629,27.3772369482257,0.));
#444=CARTESIAN_POINT($,(12.0287489389629,27.3772369482257,0.));
#445=CARTESIAN_POINT('',(12.0287489389629,27.3772369482257,10.));
#446=CARTESIAN_POINT($,(12.0287489389629,27.3772369482257,10.));
#447=CARTESIAN_POINT($,(12.0287489389629,27.3772369482257,0.));
#448=CARTESIAN_POINT('Origin',(12.0287489389629,17.4925763143501,0.));
#449=CARTESIAN_POINT('',(12.0287489389629,17.4925763143501,0.));
#450=CARTESIAN_POINT($,(12.0287489389629,14.8772369482257,0.));
#451=CARTESIAN_POINT('',(12.0287489389629,17.4925763143501,10.));
#452=CARTESIAN_POINT($,(12.0287489389629,14.8772369482257,10.));
#453=CARTESIAN_POINT($,(12.0287489389629,17.4925763143501,0.));
#454=CARTESIAN_POINT('Origin',(13.0287489389629,14.8772369482257,0.));
#455=CARTESIAN_POINT('',(14.0287489389629,17.4925763143501,0.));
#456=CARTESIAN_POINT('Origin',(13.0287489389629,14.8772369482257,0.));
#457=CARTESIAN_POINT('',(14.0287489389629,17.4925763143501,10.));
#458=CARTESIAN_POINT('Origin',(13.0287489389629,14.8772369482257,10.));
#459=CARTESIAN_POINT($,(14.0287489389629,17.4925763143501,0.));
#460=CARTESIAN_POINT('Origin',(14.0287489389629,27.3772369482257,0.));
#461=CARTESIAN_POINT('',(14.0287489389629,27.3772369482257,0.));
#462=CARTESIAN_POINT($,(14.0287489389629,27.3772369482257,0.));
#463=CARTESIAN_POINT('',(14.0287489389629,27.3772369482257,10.));
#464=CARTESIAN_POINT($,(14.0287489389629,27.3772369482257,10.));
#465=CARTESIAN_POINT($,(14.0287489389629,27.3772369482257,0.));
#466=CARTESIAN_POINT('Origin',(20.5287489389629,27.3772369482257,0.));
#467=CARTESIAN_POINT('',(20.5287489389629,27.3772369482257,0.));
#468=CARTESIAN_POINT($,(20.5287489389629,27.3772369482257,0.));
#469=CARTESIAN_POINT('',(20.5287489389629,27.3772369482257,10.));
#470=CARTESIAN_POINT($,(20.5287489389629,27.3772369482257,10.));
#471=CARTESIAN_POINT($,(20.5287489389629,27.3772369482257,0.));
#472=CARTESIAN_POINT('Origin',(20.5287489389629,2.37723694822567,0.));
#473=CARTESIAN_POINT('',(20.5287489389629,2.37723694822567,0.));
#474=CARTESIAN_POINT($,(20.5287489389629,2.37723694822567,0.));
#475=CARTESIAN_POINT('',(20.5287489389629,2.37723694822567,10.));
#476=CARTESIAN_POINT($,(20.5287489389629,2.37723694822567,10.));
#477=CARTESIAN_POINT($,(20.5287489389629,2.37723694822567,0.));
#478=CARTESIAN_POINT('Origin',(5.52874893896294,2.37723694822567,0.));
#479=CARTESIAN_POINT($,(5.52874893896294,2.37723694822567,0.));
#480=CARTESIAN_POINT($,(5.52874893896294,2.37723694822567,10.));
#481=CARTESIAN_POINT('Origin',(13.0287489389629,15.97574599322,10.));
#482=CARTESIAN_POINT('Origin',(13.0287489389629,15.97574599322,0.));
#483=UNCERTAINTY_MEASURE_WITH_UNIT(LENGTH_MEASURE(0.01),#485,
'DISTANCE_ACCURACY_VALUE',
'Maximum model space distance between geometric entities at asserted c
onnectivities');
#484=(
GEOMETRIC_REPRESENTATION_CONTEXT(3)
GLOBAL_UNCERTAINTY_ASSIGNED_CONTEXT((#483))
GLOBAL_UNIT_ASSIGNED_CONTEXT((#485,#488,#486))
REPRESENTATION_CONTEXT('','3D')
);
#485=(
LENGTH_UNIT()
NAMED_UNIT(*)
SI_UNIT(.MILLI.,.METRE.)
);
#486=(
NAMED_UNIT(*)
SI_UNIT($,.STERADIAN.)
SOLID_ANGLE_UNIT()
);
#487=DIMENSIONAL_EXPONENTS(0.,0.,0.,0.,0.,0.,0.);
#488=(
CONVERSION_BASED_UNIT('degree',#490)
NAMED_UNIT(#487)
PLANE_ANGLE_UNIT()
);
#489=(
NAMED_UNIT(*)
PLANE_ANGLE_UNIT()
SI_UNIT($,.RADIAN.)
);
#490=PLANE_ANGLE_MEASURE_WITH_UNIT(PLANE_ANGLE_MEASURE(0.01745329252),#489);
#491=SHAPE_DEFINITION_REPRESENTATION(#492,#493);
#492=PRODUCT_DEFINITION_SHAPE('',$,#495);
#493=SHAPE_REPRESENTATION('',(#293),#484);
#494=PRODUCT_DEFINITION_CONTEXT('3D Mechanical Parts',#498,'design');
#495=PRODUCT_DEFINITION('AY000008','AY000008',#496,#494);
#496=PRODUCT_DEFINITION_FORMATION('',$,#500);
#497=APPLICATION_PROTOCOL_DEFINITION('international standard',
'automotive_design',2009,#498);
#498=APPLICATION_CONTEXT(
'Core Data for Automotive Mechanical Design Process');
#499=PRODUCT_CONTEXT('3D Mechanical Parts',#498,'mechanical');
#500=PRODUCT('AY000008','AY000008',$,(#499));
#501=PRESENTATION_STYLE_ASSIGNMENT((#502));
#502=SURFACE_STYLE_USAGE(.BOTH.,#503);
#503=SURFACE_SIDE_STYLE($,(#504));
#504=SURFACE_STYLE_FILL_AREA(#505);
#505=FILL_AREA_STYLE($,(#506));
#506=FILL_AREA_STYLE_COLOUR($,#507);
#507=COLOUR_RGB('',0.749019607843137,0.749019607843137,0.749019607843137);
ENDSEC;
END-ISO-10303-21;
