ISO-10303-21;
HEADER;
/* Generated by software containing ST-Developer
 * from STEP Tools, Inc. (www.steptools.com) 
 */

FILE_DESCRIPTION(
/* description */ (''),
/* implementation_level */ '2;1');

FILE_NAME(
/* name */ 
'C:\\Users\\mitarbeiter\\Desktop\\3D\\Imported Components\\AO000423\\A
O000423.stp',
/* time_stamp */ '2016-09-28T15:35:06+02:00',
/* author */ ('mitarbeiter'),
/* organization */ (''),
/* preprocessor_version */ 'ST-DEVELOPER v15.2',
/* originating_system */ 'Autodesk Inventor 2014',
/* authorisation */ '');

FILE_SCHEMA (('AUTOMOTIVE_DESIGN { 1 0 10303 214 3 1 1 }'));
ENDSEC;

DATA;
#10=SHAPE_REPRESENTATION_RELATIONSHIP('SRR','None',#531,#11);
#11=ADVANCED_BREP_SHAPE_REPRESENTATION($,(#310),#522);
#12=STYLED_ITEM($,(#539),#310);
#13=LINE($,#491,#31);
#14=LINE($,#492,#32);
#15=LINE($,#493,#33);
#16=LINE($,#495,#34);
#17=LINE($,#497,#35);
#18=LINE($,#498,#36);
#19=LINE($,#499,#37);
#20=LINE($,#500,#38);
#21=LINE($,#502,#39);
#22=LINE($,#503,#40);
#23=LINE($,#507,#41);
#24=LINE($,#508,#42);
#25=LINE($,#509,#43);
#26=LINE($,#512,#44);
#27=LINE($,#513,#45);
#28=LINE($,#516,#46);
#29=LINE($,#517,#47);
#30=LINE($,#519,#48);
#31=VECTOR($,#412,22.5);
#32=VECTOR($,#413,97.9999999999996);
#33=VECTOR($,#414,98.);
#34=VECTOR($,#415,22.5);
#35=VECTOR($,#416,15.);
#36=VECTOR($,#417,22.5);
#37=VECTOR($,#418,98.);
#38=VECTOR($,#419,97.9999999999996);
#39=VECTOR($,#420,22.5);
#40=VECTOR($,#421,14.9999999999999);
#41=VECTOR($,#424,14.9999999999999);
#42=VECTOR($,#425,3.);
#43=VECTOR($,#426,3.);
#44=VECTOR($,#429,241.);
#45=VECTOR($,#430,3.);
#46=VECTOR($,#433,15.);
#47=VECTOR($,#434,3.);
#48=VECTOR($,#437,241.);
#49=PLANE($,#342);
#50=PLANE($,#343);
#51=PLANE($,#344);
#52=PLANE($,#345);
#53=PLANE($,#346);
#54=PLANE($,#347);
#55=CYLINDRICAL_SURFACE($,#315,1.2);
#56=CYLINDRICAL_SURFACE($,#320,1.2);
#57=CYLINDRICAL_SURFACE($,#325,1.2);
#58=CYLINDRICAL_SURFACE($,#330,1.2);
#59=CYLINDRICAL_SURFACE($,#335,1.2);
#60=CYLINDRICAL_SURFACE($,#340,1.2);
#61=FACE_BOUND($,#98,.T.);
#62=FACE_BOUND($,#100,.T.);
#63=FACE_BOUND($,#102,.T.);
#64=FACE_BOUND($,#104,.T.);
#65=FACE_BOUND($,#106,.T.);
#66=FACE_BOUND($,#108,.T.);
#67=FACE_BOUND($,#110,.T.);
#68=FACE_BOUND($,#112,.T.);
#69=FACE_BOUND($,#114,.T.);
#70=FACE_BOUND($,#116,.T.);
#71=FACE_BOUND($,#118,.T.);
#72=FACE_BOUND($,#120,.T.);
#73=FACE_BOUND($,#127,.T.);
#74=FACE_BOUND($,#128,.T.);
#75=FACE_BOUND($,#129,.T.);
#76=FACE_BOUND($,#130,.T.);
#77=FACE_BOUND($,#131,.T.);
#78=FACE_BOUND($,#132,.T.);
#79=FACE_OUTER_BOUND($,#97,.T.);
#80=FACE_OUTER_BOUND($,#99,.T.);
#81=FACE_OUTER_BOUND($,#101,.T.);
#82=FACE_OUTER_BOUND($,#103,.T.);
#83=FACE_OUTER_BOUND($,#105,.T.);
#84=FACE_OUTER_BOUND($,#107,.T.);
#85=FACE_OUTER_BOUND($,#109,.T.);
#86=FACE_OUTER_BOUND($,#111,.T.);
#87=FACE_OUTER_BOUND($,#113,.T.);
#88=FACE_OUTER_BOUND($,#115,.T.);
#89=FACE_OUTER_BOUND($,#117,.T.);
#90=FACE_OUTER_BOUND($,#119,.T.);
#91=FACE_OUTER_BOUND($,#121,.T.);
#92=FACE_OUTER_BOUND($,#122,.T.);
#93=FACE_OUTER_BOUND($,#123,.T.);
#94=FACE_OUTER_BOUND($,#124,.T.);
#95=FACE_OUTER_BOUND($,#125,.T.);
#96=FACE_OUTER_BOUND($,#126,.T.);
#97=EDGE_LOOP($,(#213));
#98=EDGE_LOOP($,(#214));
#99=EDGE_LOOP($,(#215));
#100=EDGE_LOOP($,(#216));
#101=EDGE_LOOP($,(#217));
#102=EDGE_LOOP($,(#218));
#103=EDGE_LOOP($,(#219));
#104=EDGE_LOOP($,(#220));
#105=EDGE_LOOP($,(#221));
#106=EDGE_LOOP($,(#222));
#107=EDGE_LOOP($,(#223));
#108=EDGE_LOOP($,(#224));
#109=EDGE_LOOP($,(#225));
#110=EDGE_LOOP($,(#226));
#111=EDGE_LOOP($,(#227));
#112=EDGE_LOOP($,(#228));
#113=EDGE_LOOP($,(#229));
#114=EDGE_LOOP($,(#230));
#115=EDGE_LOOP($,(#231));
#116=EDGE_LOOP($,(#232));
#117=EDGE_LOOP($,(#233));
#118=EDGE_LOOP($,(#234));
#119=EDGE_LOOP($,(#235));
#120=EDGE_LOOP($,(#236));
#121=EDGE_LOOP($,(#237,#238,#239,#240,#241,#242,#243,#244,#245,#246,#247,
#248,#249,#250,#251,#252));
#122=EDGE_LOOP($,(#253,#254,#255,#256));
#123=EDGE_LOOP($,(#257,#258,#259,#260,#261,#262,#263));
#124=EDGE_LOOP($,(#264,#265,#266,#267));
#125=EDGE_LOOP($,(#268,#269,#270,#271,#272,#273,#274));
#126=EDGE_LOOP($,(#275,#276,#277,#278));
#127=EDGE_LOOP($,(#279));
#128=EDGE_LOOP($,(#280));
#129=EDGE_LOOP($,(#281));
#130=EDGE_LOOP($,(#282));
#131=EDGE_LOOP($,(#283));
#132=EDGE_LOOP($,(#284));
#133=CIRCLE($,#313,2.);
#134=CIRCLE($,#314,1.2);
#135=CIRCLE($,#316,1.2);
#136=CIRCLE($,#318,2.);
#137=CIRCLE($,#319,1.2);
#138=CIRCLE($,#321,1.2);
#139=CIRCLE($,#323,2.);
#140=CIRCLE($,#324,1.2);
#141=CIRCLE($,#326,1.2);
#142=CIRCLE($,#328,2.);
#143=CIRCLE($,#329,1.2);
#144=CIRCLE($,#331,1.2);
#145=CIRCLE($,#333,2.);
#146=CIRCLE($,#334,1.2);
#147=CIRCLE($,#336,1.2);
#148=CIRCLE($,#338,2.);
#149=CIRCLE($,#339,1.2);
#150=CIRCLE($,#341,1.2);
#151=VERTEX_POINT($,#442);
#152=VERTEX_POINT($,#444);
#153=VERTEX_POINT($,#447);
#154=VERTEX_POINT($,#450);
#155=VERTEX_POINT($,#452);
#156=VERTEX_POINT($,#455);
#157=VERTEX_POINT($,#458);
#158=VERTEX_POINT($,#460);
#159=VERTEX_POINT($,#463);
#160=VERTEX_POINT($,#466);
#161=VERTEX_POINT($,#468);
#162=VERTEX_POINT($,#471);
#163=VERTEX_POINT($,#474);
#164=VERTEX_POINT($,#476);
#165=VERTEX_POINT($,#479);
#166=VERTEX_POINT($,#482);
#167=VERTEX_POINT($,#484);
#168=VERTEX_POINT($,#487);
#169=VERTEX_POINT($,#490);
#170=VERTEX_POINT($,#494);
#171=VERTEX_POINT($,#496);
#172=VERTEX_POINT($,#501);
#173=VERTEX_POINT($,#505);
#174=VERTEX_POINT($,#506);
#175=VERTEX_POINT($,#511);
#176=VERTEX_POINT($,#515);
#177=EDGE_CURVE($,#151,#151,#133,.T.);
#178=EDGE_CURVE($,#152,#152,#134,.T.);
#179=EDGE_CURVE($,#153,#153,#135,.T.);
#180=EDGE_CURVE($,#154,#154,#136,.T.);
#181=EDGE_CURVE($,#155,#155,#137,.T.);
#182=EDGE_CURVE($,#156,#156,#138,.T.);
#183=EDGE_CURVE($,#157,#157,#139,.T.);
#184=EDGE_CURVE($,#158,#158,#140,.T.);
#185=EDGE_CURVE($,#159,#159,#141,.T.);
#186=EDGE_CURVE($,#160,#160,#142,.T.);
#187=EDGE_CURVE($,#161,#161,#143,.T.);
#188=EDGE_CURVE($,#162,#162,#144,.T.);
#189=EDGE_CURVE($,#163,#163,#145,.T.);
#190=EDGE_CURVE($,#164,#164,#146,.T.);
#191=EDGE_CURVE($,#165,#165,#147,.T.);
#192=EDGE_CURVE($,#166,#166,#148,.T.);
#193=EDGE_CURVE($,#167,#167,#149,.T.);
#194=EDGE_CURVE($,#168,#168,#150,.T.);
#195=EDGE_CURVE($,#169,#163,#13,.T.);
#196=EDGE_CURVE($,#163,#151,#14,.T.);
#197=EDGE_CURVE($,#151,#166,#15,.T.);
#198=EDGE_CURVE($,#166,#170,#16,.T.);
#199=EDGE_CURVE($,#170,#171,#17,.T.);
#200=EDGE_CURVE($,#171,#154,#18,.T.);
#201=EDGE_CURVE($,#154,#160,#19,.T.);
#202=EDGE_CURVE($,#160,#157,#20,.T.);
#203=EDGE_CURVE($,#157,#172,#21,.T.);
#204=EDGE_CURVE($,#172,#169,#22,.T.);
#205=EDGE_CURVE($,#173,#174,#23,.T.);
#206=EDGE_CURVE($,#174,#169,#24,.T.);
#207=EDGE_CURVE($,#173,#172,#25,.T.);
#208=EDGE_CURVE($,#175,#173,#26,.T.);
#209=EDGE_CURVE($,#175,#171,#27,.T.);
#210=EDGE_CURVE($,#176,#175,#28,.T.);
#211=EDGE_CURVE($,#176,#170,#29,.T.);
#212=EDGE_CURVE($,#174,#176,#30,.T.);
#213=ORIENTED_EDGE($,*,*,#177,.F.);
#214=ORIENTED_EDGE($,*,*,#178,.F.);
#215=ORIENTED_EDGE($,*,*,#179,.F.);
#216=ORIENTED_EDGE($,*,*,#178,.T.);
#217=ORIENTED_EDGE($,*,*,#180,.F.);
#218=ORIENTED_EDGE($,*,*,#181,.F.);
#219=ORIENTED_EDGE($,*,*,#182,.F.);
#220=ORIENTED_EDGE($,*,*,#181,.T.);
#221=ORIENTED_EDGE($,*,*,#183,.F.);
#222=ORIENTED_EDGE($,*,*,#184,.F.);
#223=ORIENTED_EDGE($,*,*,#185,.F.);
#224=ORIENTED_EDGE($,*,*,#184,.T.);
#225=ORIENTED_EDGE($,*,*,#186,.F.);
#226=ORIENTED_EDGE($,*,*,#187,.F.);
#227=ORIENTED_EDGE($,*,*,#188,.F.);
#228=ORIENTED_EDGE($,*,*,#187,.T.);
#229=ORIENTED_EDGE($,*,*,#189,.F.);
#230=ORIENTED_EDGE($,*,*,#190,.F.);
#231=ORIENTED_EDGE($,*,*,#191,.F.);
#232=ORIENTED_EDGE($,*,*,#190,.T.);
#233=ORIENTED_EDGE($,*,*,#192,.F.);
#234=ORIENTED_EDGE($,*,*,#193,.F.);
#235=ORIENTED_EDGE($,*,*,#194,.F.);
#236=ORIENTED_EDGE($,*,*,#193,.T.);
#237=ORIENTED_EDGE($,*,*,#195,.T.);
#238=ORIENTED_EDGE($,*,*,#189,.T.);
#239=ORIENTED_EDGE($,*,*,#196,.T.);
#240=ORIENTED_EDGE($,*,*,#177,.T.);
#241=ORIENTED_EDGE($,*,*,#197,.T.);
#242=ORIENTED_EDGE($,*,*,#192,.T.);
#243=ORIENTED_EDGE($,*,*,#198,.T.);
#244=ORIENTED_EDGE($,*,*,#199,.T.);
#245=ORIENTED_EDGE($,*,*,#200,.T.);
#246=ORIENTED_EDGE($,*,*,#180,.T.);
#247=ORIENTED_EDGE($,*,*,#201,.T.);
#248=ORIENTED_EDGE($,*,*,#186,.T.);
#249=ORIENTED_EDGE($,*,*,#202,.T.);
#250=ORIENTED_EDGE($,*,*,#183,.T.);
#251=ORIENTED_EDGE($,*,*,#203,.T.);
#252=ORIENTED_EDGE($,*,*,#204,.T.);
#253=ORIENTED_EDGE($,*,*,#205,.T.);
#254=ORIENTED_EDGE($,*,*,#206,.T.);
#255=ORIENTED_EDGE($,*,*,#204,.F.);
#256=ORIENTED_EDGE($,*,*,#207,.F.);
#257=ORIENTED_EDGE($,*,*,#208,.T.);
#258=ORIENTED_EDGE($,*,*,#207,.T.);
#259=ORIENTED_EDGE($,*,*,#203,.F.);
#260=ORIENTED_EDGE($,*,*,#202,.F.);
#261=ORIENTED_EDGE($,*,*,#201,.F.);
#262=ORIENTED_EDGE($,*,*,#200,.F.);
#263=ORIENTED_EDGE($,*,*,#209,.F.);
#264=ORIENTED_EDGE($,*,*,#210,.T.);
#265=ORIENTED_EDGE($,*,*,#209,.T.);
#266=ORIENTED_EDGE($,*,*,#199,.F.);
#267=ORIENTED_EDGE($,*,*,#211,.F.);
#268=ORIENTED_EDGE($,*,*,#212,.T.);
#269=ORIENTED_EDGE($,*,*,#211,.T.);
#270=ORIENTED_EDGE($,*,*,#198,.F.);
#271=ORIENTED_EDGE($,*,*,#197,.F.);
#272=ORIENTED_EDGE($,*,*,#196,.F.);
#273=ORIENTED_EDGE($,*,*,#195,.F.);
#274=ORIENTED_EDGE($,*,*,#206,.F.);
#275=ORIENTED_EDGE($,*,*,#212,.F.);
#276=ORIENTED_EDGE($,*,*,#205,.F.);
#277=ORIENTED_EDGE($,*,*,#208,.F.);
#278=ORIENTED_EDGE($,*,*,#210,.F.);
#279=ORIENTED_EDGE($,*,*,#179,.T.);
#280=ORIENTED_EDGE($,*,*,#182,.T.);
#281=ORIENTED_EDGE($,*,*,#185,.T.);
#282=ORIENTED_EDGE($,*,*,#188,.T.);
#283=ORIENTED_EDGE($,*,*,#191,.T.);
#284=ORIENTED_EDGE($,*,*,#194,.T.);
#285=CONICAL_SURFACE($,#312,1.6,45.);
#286=CONICAL_SURFACE($,#317,1.6,45.);
#287=CONICAL_SURFACE($,#322,1.6,45.);
#288=CONICAL_SURFACE($,#327,1.6,45.);
#289=CONICAL_SURFACE($,#332,1.6,45.);
#290=CONICAL_SURFACE($,#337,1.6,45.);
#291=ADVANCED_FACE($,(#79,#61),#285,.F.);
#292=ADVANCED_FACE($,(#80,#62),#55,.F.);
#293=ADVANCED_FACE($,(#81,#63),#286,.F.);
#294=ADVANCED_FACE($,(#82,#64),#56,.F.);
#295=ADVANCED_FACE($,(#83,#65),#287,.F.);
#296=ADVANCED_FACE($,(#84,#66),#57,.F.);
#297=ADVANCED_FACE($,(#85,#67),#288,.F.);
#298=ADVANCED_FACE($,(#86,#68),#58,.F.);
#299=ADVANCED_FACE($,(#87,#69),#289,.F.);
#300=ADVANCED_FACE($,(#88,#70),#59,.F.);
#301=ADVANCED_FACE($,(#89,#71),#290,.F.);
#302=ADVANCED_FACE($,(#90,#72),#60,.F.);
#303=ADVANCED_FACE($,(#91),#49,.T.);
#304=ADVANCED_FACE($,(#92),#50,.T.);
#305=ADVANCED_FACE($,(#93),#51,.T.);
#306=ADVANCED_FACE($,(#94),#52,.T.);
#307=ADVANCED_FACE($,(#95),#53,.T.);
#308=ADVANCED_FACE($,(#96,#73,#74,#75,#76,#77,#78),#54,.F.);
#309=CLOSED_SHELL($,(#291,#292,#293,#294,#295,#296,#297,#298,#299,#300,
#301,#302,#303,#304,#305,#306,#307,#308));
#310=MANIFOLD_SOLID_BREP('Volumenk\X\F6rper1',#309);
#311=AXIS2_PLACEMENT_3D('placement',#440,#348,#349);
#312=AXIS2_PLACEMENT_3D($,#441,#350,#351);
#313=AXIS2_PLACEMENT_3D($,#443,#352,#353);
#314=AXIS2_PLACEMENT_3D($,#445,#354,#355);
#315=AXIS2_PLACEMENT_3D($,#446,#356,#357);
#316=AXIS2_PLACEMENT_3D($,#448,#358,#359);
#317=AXIS2_PLACEMENT_3D($,#449,#360,#361);
#318=AXIS2_PLACEMENT_3D($,#451,#362,#363);
#319=AXIS2_PLACEMENT_3D($,#453,#364,#365);
#320=AXIS2_PLACEMENT_3D($,#454,#366,#367);
#321=AXIS2_PLACEMENT_3D($,#456,#368,#369);
#322=AXIS2_PLACEMENT_3D($,#457,#370,#371);
#323=AXIS2_PLACEMENT_3D($,#459,#372,#373);
#324=AXIS2_PLACEMENT_3D($,#461,#374,#375);
#325=AXIS2_PLACEMENT_3D($,#462,#376,#377);
#326=AXIS2_PLACEMENT_3D($,#464,#378,#379);
#327=AXIS2_PLACEMENT_3D($,#465,#380,#381);
#328=AXIS2_PLACEMENT_3D($,#467,#382,#383);
#329=AXIS2_PLACEMENT_3D($,#469,#384,#385);
#330=AXIS2_PLACEMENT_3D($,#470,#386,#387);
#331=AXIS2_PLACEMENT_3D($,#472,#388,#389);
#332=AXIS2_PLACEMENT_3D($,#473,#390,#391);
#333=AXIS2_PLACEMENT_3D($,#475,#392,#393);
#334=AXIS2_PLACEMENT_3D($,#477,#394,#395);
#335=AXIS2_PLACEMENT_3D($,#478,#396,#397);
#336=AXIS2_PLACEMENT_3D($,#480,#398,#399);
#337=AXIS2_PLACEMENT_3D($,#481,#400,#401);
#338=AXIS2_PLACEMENT_3D($,#483,#402,#403);
#339=AXIS2_PLACEMENT_3D($,#485,#404,#405);
#340=AXIS2_PLACEMENT_3D($,#486,#406,#407);
#341=AXIS2_PLACEMENT_3D($,#488,#408,#409);
#342=AXIS2_PLACEMENT_3D($,#489,#410,#411);
#343=AXIS2_PLACEMENT_3D($,#504,#422,#423);
#344=AXIS2_PLACEMENT_3D($,#510,#427,#428);
#345=AXIS2_PLACEMENT_3D($,#514,#431,#432);
#346=AXIS2_PLACEMENT_3D($,#518,#435,#436);
#347=AXIS2_PLACEMENT_3D($,#520,#438,#439);
#348=DIRECTION('axis',(0.,0.,1.));
#349=DIRECTION('refdir',(1.,0.,0.));
#350=DIRECTION('center_axis',(0.,0.,1.));
#351=DIRECTION('ref_axis',(1.,0.,0.));
#352=DIRECTION('center_axis',(0.,0.,-1.));
#353=DIRECTION('ref_axis',(1.,0.,0.));
#354=DIRECTION('center_axis',(0.,0.,1.));
#355=DIRECTION('ref_axis',(1.,0.,0.));
#356=DIRECTION('center_axis',(0.,0.,1.));
#357=DIRECTION('ref_axis',(1.,0.,0.));
#358=DIRECTION('center_axis',(0.,0.,1.));
#359=DIRECTION('ref_axis',(1.,0.,0.));
#360=DIRECTION('center_axis',(0.,0.,1.));
#361=DIRECTION('ref_axis',(1.,0.,0.));
#362=DIRECTION('center_axis',(0.,0.,-1.));
#363=DIRECTION('ref_axis',(1.,0.,0.));
#364=DIRECTION('center_axis',(0.,0.,1.));
#365=DIRECTION('ref_axis',(1.,0.,0.));
#366=DIRECTION('center_axis',(0.,0.,1.));
#367=DIRECTION('ref_axis',(1.,0.,0.));
#368=DIRECTION('center_axis',(0.,0.,1.));
#369=DIRECTION('ref_axis',(1.,0.,0.));
#370=DIRECTION('center_axis',(0.,0.,1.));
#371=DIRECTION('ref_axis',(1.,0.,0.));
#372=DIRECTION('center_axis',(0.,0.,-1.));
#373=DIRECTION('ref_axis',(1.,0.,0.));
#374=DIRECTION('center_axis',(0.,0.,1.));
#375=DIRECTION('ref_axis',(1.,0.,0.));
#376=DIRECTION('center_axis',(0.,0.,1.));
#377=DIRECTION('ref_axis',(1.,0.,0.));
#378=DIRECTION('center_axis',(0.,0.,1.));
#379=DIRECTION('ref_axis',(1.,0.,0.));
#380=DIRECTION('center_axis',(0.,0.,1.));
#381=DIRECTION('ref_axis',(1.,0.,0.));
#382=DIRECTION('center_axis',(0.,0.,-1.));
#383=DIRECTION('ref_axis',(1.,0.,0.));
#384=DIRECTION('center_axis',(0.,0.,1.));
#385=DIRECTION('ref_axis',(1.,0.,0.));
#386=DIRECTION('center_axis',(0.,0.,1.));
#387=DIRECTION('ref_axis',(1.,0.,0.));
#388=DIRECTION('center_axis',(0.,0.,1.));
#389=DIRECTION('ref_axis',(1.,0.,0.));
#390=DIRECTION('center_axis',(0.,0.,1.));
#391=DIRECTION('ref_axis',(1.,0.,0.));
#392=DIRECTION('center_axis',(0.,0.,-1.));
#393=DIRECTION('ref_axis',(1.,0.,0.));
#394=DIRECTION('center_axis',(0.,0.,1.));
#395=DIRECTION('ref_axis',(1.,0.,0.));
#396=DIRECTION('center_axis',(0.,0.,1.));
#397=DIRECTION('ref_axis',(1.,0.,0.));
#398=DIRECTION('center_axis',(0.,0.,1.));
#399=DIRECTION('ref_axis',(1.,0.,0.));
#400=DIRECTION('center_axis',(0.,0.,1.));
#401=DIRECTION('ref_axis',(1.,0.,0.));
#402=DIRECTION('center_axis',(0.,0.,-1.));
#403=DIRECTION('ref_axis',(1.,0.,0.));
#404=DIRECTION('center_axis',(0.,0.,1.));
#405=DIRECTION('ref_axis',(1.,0.,0.));
#406=DIRECTION('center_axis',(0.,0.,1.));
#407=DIRECTION('ref_axis',(1.,0.,0.));
#408=DIRECTION('center_axis',(0.,0.,1.));
#409=DIRECTION('ref_axis',(1.,0.,0.));
#410=DIRECTION('center_axis',(0.,0.,1.));
#411=DIRECTION('ref_axis',(1.,0.,0.));
#412=DIRECTION($,(1.,-5.98875490461703E-017,0.));
#413=DIRECTION($,(1.,-5.98875490461703E-017,0.));
#414=DIRECTION($,(1.,-5.98875490461703E-017,0.));
#415=DIRECTION($,(1.,-5.98875490461703E-017,0.));
#416=DIRECTION($,(0.,1.,0.));
#417=DIRECTION($,(-1.,-9.21346908402619E-017,0.));
#418=DIRECTION($,(-1.,-9.21346908402619E-017,0.));
#419=DIRECTION($,(-1.,-9.21346908402619E-017,0.));
#420=DIRECTION($,(-1.,-9.21346908402619E-017,0.));
#421=DIRECTION($,(2.96059473233376E-016,-1.,0.));
#422=DIRECTION('center_axis',(-1.,-2.96059473233376E-016,0.));
#423=DIRECTION('ref_axis',(0.,-1.,0.));
#424=DIRECTION($,(2.96059473233376E-016,-1.,0.));
#425=DIRECTION($,(0.,0.,1.));
#426=DIRECTION($,(0.,0.,1.));
#427=DIRECTION('center_axis',(-9.21346908402619E-017,1.,0.));
#428=DIRECTION('ref_axis',(-1.,0.,0.));
#429=DIRECTION($,(-1.,-9.21346908402619E-017,0.));
#430=DIRECTION($,(0.,0.,1.));
#431=DIRECTION('center_axis',(1.,0.,0.));
#432=DIRECTION('ref_axis',(0.,1.,0.));
#433=DIRECTION($,(0.,1.,0.));
#434=DIRECTION($,(0.,0.,1.));
#435=DIRECTION('center_axis',(-5.98875490461703E-017,-1.,0.));
#436=DIRECTION('ref_axis',(1.,0.,0.));
#437=DIRECTION($,(1.,-5.98875490461703E-017,0.));
#438=DIRECTION('center_axis',(0.,0.,1.));
#439=DIRECTION('ref_axis',(1.,0.,0.));
#440=CARTESIAN_POINT('',(0.,0.,0.));
#441=CARTESIAN_POINT('Origin',(112.371024378779,7.10228926969657,2.6));
#442=CARTESIAN_POINT('',(112.371024378779,5.10228926969657,3.));
#443=CARTESIAN_POINT('Origin',(112.371024378779,7.10228926969657,3.));
#444=CARTESIAN_POINT('',(113.571024378779,7.10228926969657,2.2));
#445=CARTESIAN_POINT('Origin',(112.371024378779,7.10228926969657,2.2));
#446=CARTESIAN_POINT('Origin',(112.371024378779,7.10228926969657,-1.));
#447=CARTESIAN_POINT('',(111.171024378779,7.10228926969657,0.));
#448=CARTESIAN_POINT('Origin',(112.371024378779,7.10228926969657,0.));
#449=CARTESIAN_POINT('Origin',(210.371024378779,18.1022892696966,2.6));
#450=CARTESIAN_POINT('',(210.371024378779,20.1022892696966,3.));
#451=CARTESIAN_POINT('Origin',(210.371024378779,18.1022892696966,3.));
#452=CARTESIAN_POINT('',(211.571024378779,18.1022892696966,2.2));
#453=CARTESIAN_POINT('Origin',(210.371024378779,18.1022892696966,2.2));
#454=CARTESIAN_POINT('Origin',(210.371024378779,18.1022892696966,-1.));
#455=CARTESIAN_POINT('',(209.171024378779,18.1022892696966,0.));
#456=CARTESIAN_POINT('Origin',(210.371024378779,18.1022892696966,0.));
#457=CARTESIAN_POINT('Origin',(14.3710243787794,18.1022892696965,2.6));
#458=CARTESIAN_POINT('',(14.3710243787794,20.1022892696965,3.));
#459=CARTESIAN_POINT('Origin',(14.3710243787794,18.1022892696965,3.));
#460=CARTESIAN_POINT('',(15.5710243787794,18.1022892696965,2.2));
#461=CARTESIAN_POINT('Origin',(14.3710243787794,18.1022892696965,2.2));
#462=CARTESIAN_POINT('Origin',(14.3710243787794,18.1022892696965,-1.));
#463=CARTESIAN_POINT('',(13.1710243787794,18.1022892696965,0.));
#464=CARTESIAN_POINT('Origin',(14.3710243787794,18.1022892696965,0.));
#465=CARTESIAN_POINT('Origin',(112.371024378779,18.1022892696966,2.6));
#466=CARTESIAN_POINT('',(112.371024378779,20.1022892696966,3.));
#467=CARTESIAN_POINT('Origin',(112.371024378779,18.1022892696966,3.));
#468=CARTESIAN_POINT('',(113.571024378779,18.1022892696966,2.2));
#469=CARTESIAN_POINT('Origin',(112.371024378779,18.1022892696966,2.2));
#470=CARTESIAN_POINT('Origin',(112.371024378779,18.1022892696966,-1.));
#471=CARTESIAN_POINT('',(111.171024378779,18.1022892696966,0.));
#472=CARTESIAN_POINT('Origin',(112.371024378779,18.1022892696966,0.));
#473=CARTESIAN_POINT('Origin',(14.3710243787794,7.10228926969657,2.6));
#474=CARTESIAN_POINT('',(14.3710243787794,5.10228926969657,3.));
#475=CARTESIAN_POINT('Origin',(14.3710243787794,7.10228926969657,3.));
#476=CARTESIAN_POINT('',(15.5710243787794,7.10228926969657,2.2));
#477=CARTESIAN_POINT('Origin',(14.3710243787794,7.10228926969657,2.2));
#478=CARTESIAN_POINT('Origin',(14.3710243787794,7.10228926969657,-1.));
#479=CARTESIAN_POINT('',(13.1710243787794,7.10228926969657,0.));
#480=CARTESIAN_POINT('Origin',(14.3710243787794,7.10228926969657,0.));
#481=CARTESIAN_POINT('Origin',(210.371024378779,7.10228926969656,2.6));
#482=CARTESIAN_POINT('',(210.371024378779,5.10228926969656,3.));
#483=CARTESIAN_POINT('Origin',(210.371024378779,7.10228926969656,3.));
#484=CARTESIAN_POINT('',(211.571024378779,7.10228926969656,2.2));
#485=CARTESIAN_POINT('Origin',(210.371024378779,7.10228926969656,2.2));
#486=CARTESIAN_POINT('Origin',(210.371024378779,7.10228926969656,-1.));
#487=CARTESIAN_POINT('',(209.171024378779,7.10228926969656,0.));
#488=CARTESIAN_POINT('Origin',(210.371024378779,7.10228926969656,0.));
#489=CARTESIAN_POINT('Origin',(112.371024378779,12.6022892696966,3.));
#490=CARTESIAN_POINT('',(-8.12897562122057,5.10228926969658,3.));
#491=CARTESIAN_POINT($,(-8.12897562122057,5.10228926969658,3.));
#492=CARTESIAN_POINT($,(-8.12897562122057,5.10228926969658,3.));
#493=CARTESIAN_POINT($,(-8.12897562122057,5.10228926969658,3.));
#494=CARTESIAN_POINT('',(232.871024378779,5.10228926969656,3.));
#495=CARTESIAN_POINT($,(-8.12897562122057,5.10228926969658,3.));
#496=CARTESIAN_POINT('',(232.871024378779,20.1022892696966,3.));
#497=CARTESIAN_POINT($,(232.871024378779,5.10228926969656,3.));
#498=CARTESIAN_POINT($,(232.871024378779,20.1022892696966,3.));
#499=CARTESIAN_POINT($,(232.871024378779,20.1022892696966,3.));
#500=CARTESIAN_POINT($,(232.871024378779,20.1022892696966,3.));
#501=CARTESIAN_POINT('',(-8.12897562122057,20.1022892696965,3.));
#502=CARTESIAN_POINT($,(232.871024378779,20.1022892696966,3.));
#503=CARTESIAN_POINT($,(-8.12897562122057,20.1022892696965,3.));
#504=CARTESIAN_POINT('Origin',(-8.12897562122057,20.1022892696965,0.));
#505=CARTESIAN_POINT('',(-8.12897562122057,20.1022892696965,0.));
#506=CARTESIAN_POINT('',(-8.12897562122057,5.10228926969658,0.));
#507=CARTESIAN_POINT($,(-8.12897562122057,20.1022892696965,0.));
#508=CARTESIAN_POINT($,(-8.12897562122057,5.10228926969658,0.));
#509=CARTESIAN_POINT($,(-8.12897562122057,20.1022892696965,0.));
#510=CARTESIAN_POINT('Origin',(232.871024378779,20.1022892696966,0.));
#511=CARTESIAN_POINT('',(232.871024378779,20.1022892696966,0.));
#512=CARTESIAN_POINT($,(232.871024378779,20.1022892696966,0.));
#513=CARTESIAN_POINT($,(232.871024378779,20.1022892696966,0.));
#514=CARTESIAN_POINT('Origin',(232.871024378779,5.10228926969656,0.));
#515=CARTESIAN_POINT('',(232.871024378779,5.10228926969656,0.));
#516=CARTESIAN_POINT($,(232.871024378779,5.10228926969656,0.));
#517=CARTESIAN_POINT($,(232.871024378779,5.10228926969656,0.));
#518=CARTESIAN_POINT('Origin',(-8.12897562122057,5.10228926969658,0.));
#519=CARTESIAN_POINT($,(-8.12897562122057,5.10228926969658,0.));
#520=CARTESIAN_POINT('Origin',(112.371024378779,12.6022892696966,0.));
#521=UNCERTAINTY_MEASURE_WITH_UNIT(LENGTH_MEASURE(0.01),#523,
'DISTANCE_ACCURACY_VALUE',
'Maximum model space distance between geometric entities at asserted c
onnectivities');
#522=(
GEOMETRIC_REPRESENTATION_CONTEXT(3)
GLOBAL_UNCERTAINTY_ASSIGNED_CONTEXT((#521))
GLOBAL_UNIT_ASSIGNED_CONTEXT((#523,#526,#524))
REPRESENTATION_CONTEXT('','3D')
);
#523=(
LENGTH_UNIT()
NAMED_UNIT(*)
SI_UNIT(.MILLI.,.METRE.)
);
#524=(
NAMED_UNIT(*)
SI_UNIT($,.STERADIAN.)
SOLID_ANGLE_UNIT()
);
#525=DIMENSIONAL_EXPONENTS(0.,0.,0.,0.,0.,0.,0.);
#526=(
CONVERSION_BASED_UNIT('degree',#528)
NAMED_UNIT(#525)
PLANE_ANGLE_UNIT()
);
#527=(
NAMED_UNIT(*)
PLANE_ANGLE_UNIT()
SI_UNIT($,.RADIAN.)
);
#528=PLANE_ANGLE_MEASURE_WITH_UNIT(PLANE_ANGLE_MEASURE(0.01745329252),#527);
#529=SHAPE_DEFINITION_REPRESENTATION(#530,#531);
#530=PRODUCT_DEFINITION_SHAPE('',$,#533);
#531=SHAPE_REPRESENTATION('',(#311),#522);
#532=PRODUCT_DEFINITION_CONTEXT('3D Mechanical Parts',#536,'design');
#533=PRODUCT_DEFINITION('AO000423','AO000423',#534,#532);
#534=PRODUCT_DEFINITION_FORMATION('',$,#538);
#535=APPLICATION_PROTOCOL_DEFINITION('international standard',
'automotive_design',2009,#536);
#536=APPLICATION_CONTEXT(
'Core Data for Automotive Mechanical Design Process');
#537=PRODUCT_CONTEXT('3D Mechanical Parts',#536,'mechanical');
#538=PRODUCT('AO000423','AO000423',$,(#537));
#539=PRESENTATION_STYLE_ASSIGNMENT((#540));
#540=SURFACE_STYLE_USAGE(.BOTH.,#541);
#541=SURFACE_SIDE_STYLE($,(#542));
#542=SURFACE_STYLE_FILL_AREA(#543);
#543=FILL_AREA_STYLE($,(#544));
#544=FILL_AREA_STYLE_COLOUR($,#545);
#545=COLOUR_RGB('',0.749019607843137,0.749019607843137,0.749019607843137);
ENDSEC;
END-ISO-10303-21;
