ISO-10303-21;
HEADER;
/* Generated by software containing ST-Developer
 * from STEP Tools, Inc. (www.steptools.com) 
 */

FILE_DESCRIPTION(
/* description */ (''),
/* implementation_level */ '2;1');

FILE_NAME(
/* name */ 
'C:\\Users\\mitarbeiter\\Desktop\\3D\\Imported Components\\AD000014\\A
D000014.stp',
/* time_stamp */ '2016-09-28T09:09:09+02:00',
/* author */ ('mitarbeiter'),
/* organization */ (''),
/* preprocessor_version */ 'ST-DEVELOPER v15.2',
/* originating_system */ 'Autodesk Inventor 2014',
/* authorisation */ '');

FILE_SCHEMA (('AUTOMOTIVE_DESIGN { 1 0 10303 214 3 1 1 }'));
ENDSEC;

DATA;
#10=SHAPE_REPRESENTATION_RELATIONSHIP('SRR','None',#481,#11);
#11=ADVANCED_BREP_SHAPE_REPRESENTATION($,(#272),#472);
#12=STYLED_ITEM($,(#489),#272);
#13=LINE($,#412,#41);
#14=LINE($,#414,#42);
#15=LINE($,#416,#43);
#16=LINE($,#417,#44);
#17=LINE($,#420,#45);
#18=LINE($,#422,#46);
#19=LINE($,#423,#47);
#20=LINE($,#426,#48);
#21=LINE($,#428,#49);
#22=LINE($,#429,#50);
#23=LINE($,#432,#51);
#24=LINE($,#434,#52);
#25=LINE($,#435,#53);
#26=LINE($,#441,#54);
#27=LINE($,#444,#55);
#28=LINE($,#446,#56);
#29=LINE($,#447,#57);
#30=LINE($,#450,#58);
#31=LINE($,#452,#59);
#32=LINE($,#453,#60);
#33=LINE($,#456,#61);
#34=LINE($,#458,#62);
#35=LINE($,#459,#63);
#36=LINE($,#462,#64);
#37=LINE($,#464,#65);
#38=LINE($,#465,#66);
#39=LINE($,#467,#67);
#40=LINE($,#468,#68);
#41=VECTOR($,#310,28.);
#42=VECTOR($,#311,16.);
#43=VECTOR($,#312,28.);
#44=VECTOR($,#313,16.);
#45=VECTOR($,#316,2.82842712474619);
#46=VECTOR($,#317,2.82842712474619);
#47=VECTOR($,#318,16.);
#48=VECTOR($,#321,3.50000000000001);
#49=VECTOR($,#322,3.50000000000001);
#50=VECTOR($,#323,16.);
#51=VECTOR($,#326,2.97802663890405);
#52=VECTOR($,#327,2.97802663890405);
#53=VECTOR($,#328,16.);
#54=VECTOR($,#335,16.);
#55=VECTOR($,#338,2.97802663890406);
#56=VECTOR($,#339,2.97802663890406);
#57=VECTOR($,#340,16.);
#58=VECTOR($,#343,3.5);
#59=VECTOR($,#344,3.5);
#60=VECTOR($,#345,16.);
#61=VECTOR($,#348,2.82842712474619);
#62=VECTOR($,#349,2.82842712474619);
#63=VECTOR($,#350,16.);
#64=VECTOR($,#353,28.);
#65=VECTOR($,#354,28.);
#66=VECTOR($,#355,16.);
#67=VECTOR($,#358,27.);
#68=VECTOR($,#359,27.);
#69=PLANE($,#280);
#70=PLANE($,#281);
#71=PLANE($,#282);
#72=PLANE($,#283);
#73=PLANE($,#287);
#74=PLANE($,#288);
#75=PLANE($,#289);
#76=PLANE($,#290);
#77=PLANE($,#291);
#78=PLANE($,#292);
#79=PLANE($,#293);
#80=B_SPLINE_CURVE_WITH_KNOTS($,3,(#372,#373,#374,#375,#376,#377,#378,#379,
#380,#381,#382,#383,#384,#385,#386,#387,#388,#389,#390,#391,#392,#393,#394,
#395,#396,#397,#398,#399,#400,#401,#402,#403,#404,#405),.UNSPECIFIED.,.T.,
 .F.,(4,2,2,2,2,2,2,2,2,2,2,2,2,2,2,2,4),(-3.46486405386393,-3.24689883889669,
-3.02893362392945,-2.81379092379863,-2.59864822366782,-2.38350540034154,
-2.16836257701525,-1.95039730197361,-1.73243202693197,-1.51446675189032,
-1.29650147684868,-1.0813586535224,-0.866215830196114,-0.651073130065299,
-0.435930429934484,-0.217965214967242,0.),.UNSPECIFIED.);
#81=CYLINDRICAL_SURFACE($,#277,5.5);
#82=CYLINDRICAL_SURFACE($,#278,3.);
#83=CYLINDRICAL_SURFACE($,#284,8.);
#84=FACE_BOUND($,#105,.T.);
#85=FACE_BOUND($,#107,.T.);
#86=FACE_BOUND($,#109,.T.);
#87=FACE_BOUND($,#115,.T.);
#88=FACE_BOUND($,#121,.T.);
#89=FACE_OUTER_BOUND($,#104,.T.);
#90=FACE_OUTER_BOUND($,#106,.T.);
#91=FACE_OUTER_BOUND($,#108,.T.);
#92=FACE_OUTER_BOUND($,#110,.T.);
#93=FACE_OUTER_BOUND($,#111,.T.);
#94=FACE_OUTER_BOUND($,#112,.T.);
#95=FACE_OUTER_BOUND($,#113,.T.);
#96=FACE_OUTER_BOUND($,#114,.T.);
#97=FACE_OUTER_BOUND($,#116,.T.);
#98=FACE_OUTER_BOUND($,#117,.T.);
#99=FACE_OUTER_BOUND($,#118,.T.);
#100=FACE_OUTER_BOUND($,#119,.T.);
#101=FACE_OUTER_BOUND($,#120,.T.);
#102=FACE_OUTER_BOUND($,#122,.T.);
#103=FACE_OUTER_BOUND($,#123,.T.);
#104=EDGE_LOOP($,(#187));
#105=EDGE_LOOP($,(#188));
#106=EDGE_LOOP($,(#189));
#107=EDGE_LOOP($,(#190));
#108=EDGE_LOOP($,(#191));
#109=EDGE_LOOP($,(#192));
#110=EDGE_LOOP($,(#193,#194,#195,#196));
#111=EDGE_LOOP($,(#197,#198,#199,#200));
#112=EDGE_LOOP($,(#201,#202,#203,#204));
#113=EDGE_LOOP($,(#205,#206,#207,#208));
#114=EDGE_LOOP($,(#209,#210,#211,#212));
#115=EDGE_LOOP($,(#213));
#116=EDGE_LOOP($,(#214,#215,#216,#217));
#117=EDGE_LOOP($,(#218,#219,#220,#221));
#118=EDGE_LOOP($,(#222,#223,#224,#225));
#119=EDGE_LOOP($,(#226,#227,#228,#229));
#120=EDGE_LOOP($,(#230,#231,#232,#233));
#121=EDGE_LOOP($,(#234));
#122=EDGE_LOOP($,(#235,#236,#237,#238,#239,#240,#241,#242,#243,#244));
#123=EDGE_LOOP($,(#245,#246,#247,#248,#249,#250,#251,#252,#253,#254));
#124=CIRCLE($,#275,3.0000000000047);
#125=CIRCLE($,#276,5.5);
#126=CIRCLE($,#279,3.);
#127=CIRCLE($,#285,8.);
#128=CIRCLE($,#286,8.);
#129=VERTEX_POINT($,#366);
#130=VERTEX_POINT($,#368);
#131=VERTEX_POINT($,#371);
#132=VERTEX_POINT($,#407);
#133=VERTEX_POINT($,#410);
#134=VERTEX_POINT($,#411);
#135=VERTEX_POINT($,#413);
#136=VERTEX_POINT($,#415);
#137=VERTEX_POINT($,#419);
#138=VERTEX_POINT($,#421);
#139=VERTEX_POINT($,#425);
#140=VERTEX_POINT($,#427);
#141=VERTEX_POINT($,#431);
#142=VERTEX_POINT($,#433);
#143=VERTEX_POINT($,#437);
#144=VERTEX_POINT($,#439);
#145=VERTEX_POINT($,#443);
#146=VERTEX_POINT($,#445);
#147=VERTEX_POINT($,#449);
#148=VERTEX_POINT($,#451);
#149=VERTEX_POINT($,#455);
#150=VERTEX_POINT($,#457);
#151=VERTEX_POINT($,#461);
#152=VERTEX_POINT($,#463);
#153=EDGE_CURVE($,#129,#129,#124,.T.);
#154=EDGE_CURVE($,#130,#130,#125,.T.);
#155=EDGE_CURVE($,#131,#131,#80,.T.);
#156=EDGE_CURVE($,#132,#132,#126,.T.);
#157=EDGE_CURVE($,#133,#134,#13,.T.);
#158=EDGE_CURVE($,#134,#135,#14,.T.);
#159=EDGE_CURVE($,#136,#135,#15,.T.);
#160=EDGE_CURVE($,#133,#136,#16,.T.);
#161=EDGE_CURVE($,#137,#133,#17,.T.);
#162=EDGE_CURVE($,#138,#136,#18,.T.);
#163=EDGE_CURVE($,#137,#138,#19,.T.);
#164=EDGE_CURVE($,#139,#137,#20,.T.);
#165=EDGE_CURVE($,#140,#138,#21,.T.);
#166=EDGE_CURVE($,#139,#140,#22,.T.);
#167=EDGE_CURVE($,#141,#139,#23,.T.);
#168=EDGE_CURVE($,#142,#140,#24,.T.);
#169=EDGE_CURVE($,#141,#142,#25,.T.);
#170=EDGE_CURVE($,#143,#141,#127,.T.);
#171=EDGE_CURVE($,#144,#142,#128,.T.);
#172=EDGE_CURVE($,#143,#144,#26,.T.);
#173=EDGE_CURVE($,#145,#143,#27,.T.);
#174=EDGE_CURVE($,#146,#144,#28,.T.);
#175=EDGE_CURVE($,#145,#146,#29,.T.);
#176=EDGE_CURVE($,#147,#145,#30,.T.);
#177=EDGE_CURVE($,#148,#146,#31,.T.);
#178=EDGE_CURVE($,#147,#148,#32,.T.);
#179=EDGE_CURVE($,#149,#147,#33,.T.);
#180=EDGE_CURVE($,#150,#148,#34,.T.);
#181=EDGE_CURVE($,#149,#150,#35,.T.);
#182=EDGE_CURVE($,#151,#149,#36,.T.);
#183=EDGE_CURVE($,#152,#150,#37,.T.);
#184=EDGE_CURVE($,#151,#152,#38,.T.);
#185=EDGE_CURVE($,#134,#151,#39,.T.);
#186=EDGE_CURVE($,#135,#152,#40,.T.);
#187=ORIENTED_EDGE($,*,*,#153,.F.);
#188=ORIENTED_EDGE($,*,*,#154,.F.);
#189=ORIENTED_EDGE($,*,*,#155,.F.);
#190=ORIENTED_EDGE($,*,*,#154,.T.);
#191=ORIENTED_EDGE($,*,*,#153,.T.);
#192=ORIENTED_EDGE($,*,*,#156,.F.);
#193=ORIENTED_EDGE($,*,*,#157,.T.);
#194=ORIENTED_EDGE($,*,*,#158,.T.);
#195=ORIENTED_EDGE($,*,*,#159,.F.);
#196=ORIENTED_EDGE($,*,*,#160,.F.);
#197=ORIENTED_EDGE($,*,*,#161,.T.);
#198=ORIENTED_EDGE($,*,*,#160,.T.);
#199=ORIENTED_EDGE($,*,*,#162,.F.);
#200=ORIENTED_EDGE($,*,*,#163,.F.);
#201=ORIENTED_EDGE($,*,*,#164,.T.);
#202=ORIENTED_EDGE($,*,*,#163,.T.);
#203=ORIENTED_EDGE($,*,*,#165,.F.);
#204=ORIENTED_EDGE($,*,*,#166,.F.);
#205=ORIENTED_EDGE($,*,*,#167,.T.);
#206=ORIENTED_EDGE($,*,*,#166,.T.);
#207=ORIENTED_EDGE($,*,*,#168,.F.);
#208=ORIENTED_EDGE($,*,*,#169,.F.);
#209=ORIENTED_EDGE($,*,*,#170,.T.);
#210=ORIENTED_EDGE($,*,*,#169,.T.);
#211=ORIENTED_EDGE($,*,*,#171,.F.);
#212=ORIENTED_EDGE($,*,*,#172,.F.);
#213=ORIENTED_EDGE($,*,*,#155,.T.);
#214=ORIENTED_EDGE($,*,*,#173,.T.);
#215=ORIENTED_EDGE($,*,*,#172,.T.);
#216=ORIENTED_EDGE($,*,*,#174,.F.);
#217=ORIENTED_EDGE($,*,*,#175,.F.);
#218=ORIENTED_EDGE($,*,*,#176,.T.);
#219=ORIENTED_EDGE($,*,*,#175,.T.);
#220=ORIENTED_EDGE($,*,*,#177,.F.);
#221=ORIENTED_EDGE($,*,*,#178,.F.);
#222=ORIENTED_EDGE($,*,*,#179,.T.);
#223=ORIENTED_EDGE($,*,*,#178,.T.);
#224=ORIENTED_EDGE($,*,*,#180,.F.);
#225=ORIENTED_EDGE($,*,*,#181,.F.);
#226=ORIENTED_EDGE($,*,*,#182,.T.);
#227=ORIENTED_EDGE($,*,*,#181,.T.);
#228=ORIENTED_EDGE($,*,*,#183,.F.);
#229=ORIENTED_EDGE($,*,*,#184,.F.);
#230=ORIENTED_EDGE($,*,*,#185,.T.);
#231=ORIENTED_EDGE($,*,*,#184,.T.);
#232=ORIENTED_EDGE($,*,*,#186,.F.);
#233=ORIENTED_EDGE($,*,*,#158,.F.);
#234=ORIENTED_EDGE($,*,*,#156,.T.);
#235=ORIENTED_EDGE($,*,*,#186,.T.);
#236=ORIENTED_EDGE($,*,*,#183,.T.);
#237=ORIENTED_EDGE($,*,*,#180,.T.);
#238=ORIENTED_EDGE($,*,*,#177,.T.);
#239=ORIENTED_EDGE($,*,*,#174,.T.);
#240=ORIENTED_EDGE($,*,*,#171,.T.);
#241=ORIENTED_EDGE($,*,*,#168,.T.);
#242=ORIENTED_EDGE($,*,*,#165,.T.);
#243=ORIENTED_EDGE($,*,*,#162,.T.);
#244=ORIENTED_EDGE($,*,*,#159,.T.);
#245=ORIENTED_EDGE($,*,*,#185,.F.);
#246=ORIENTED_EDGE($,*,*,#157,.F.);
#247=ORIENTED_EDGE($,*,*,#161,.F.);
#248=ORIENTED_EDGE($,*,*,#164,.F.);
#249=ORIENTED_EDGE($,*,*,#167,.F.);
#250=ORIENTED_EDGE($,*,*,#170,.F.);
#251=ORIENTED_EDGE($,*,*,#173,.F.);
#252=ORIENTED_EDGE($,*,*,#176,.F.);
#253=ORIENTED_EDGE($,*,*,#179,.F.);
#254=ORIENTED_EDGE($,*,*,#182,.F.);
#255=CONICAL_SURFACE($,#274,2.75,59.);
#256=ADVANCED_FACE($,(#89,#84),#255,.F.);
#257=ADVANCED_FACE($,(#90,#85),#81,.F.);
#258=ADVANCED_FACE($,(#91,#86),#82,.F.);
#259=ADVANCED_FACE($,(#92),#69,.T.);
#260=ADVANCED_FACE($,(#93),#70,.T.);
#261=ADVANCED_FACE($,(#94),#71,.T.);
#262=ADVANCED_FACE($,(#95),#72,.T.);
#263=ADVANCED_FACE($,(#96,#87),#83,.F.);
#264=ADVANCED_FACE($,(#97),#73,.T.);
#265=ADVANCED_FACE($,(#98),#74,.T.);
#266=ADVANCED_FACE($,(#99),#75,.T.);
#267=ADVANCED_FACE($,(#100),#76,.T.);
#268=ADVANCED_FACE($,(#101,#88),#77,.T.);
#269=ADVANCED_FACE($,(#102),#78,.T.);
#270=ADVANCED_FACE($,(#103),#79,.F.);
#271=CLOSED_SHELL($,(#256,#257,#258,#259,#260,#261,#262,#263,#264,#265,
#266,#267,#268,#269,#270));
#272=MANIFOLD_SOLID_BREP('Volumenk\X\F6rper1',#271);
#273=AXIS2_PLACEMENT_3D('placement',#364,#294,#295);
#274=AXIS2_PLACEMENT_3D($,#365,#296,#297);
#275=AXIS2_PLACEMENT_3D($,#367,#298,#299);
#276=AXIS2_PLACEMENT_3D($,#369,#300,#301);
#277=AXIS2_PLACEMENT_3D($,#370,#302,#303);
#278=AXIS2_PLACEMENT_3D($,#406,#304,#305);
#279=AXIS2_PLACEMENT_3D($,#408,#306,#307);
#280=AXIS2_PLACEMENT_3D($,#409,#308,#309);
#281=AXIS2_PLACEMENT_3D($,#418,#314,#315);
#282=AXIS2_PLACEMENT_3D($,#424,#319,#320);
#283=AXIS2_PLACEMENT_3D($,#430,#324,#325);
#284=AXIS2_PLACEMENT_3D($,#436,#329,#330);
#285=AXIS2_PLACEMENT_3D($,#438,#331,#332);
#286=AXIS2_PLACEMENT_3D($,#440,#333,#334);
#287=AXIS2_PLACEMENT_3D($,#442,#336,#337);
#288=AXIS2_PLACEMENT_3D($,#448,#341,#342);
#289=AXIS2_PLACEMENT_3D($,#454,#346,#347);
#290=AXIS2_PLACEMENT_3D($,#460,#351,#352);
#291=AXIS2_PLACEMENT_3D($,#466,#356,#357);
#292=AXIS2_PLACEMENT_3D($,#469,#360,#361);
#293=AXIS2_PLACEMENT_3D($,#470,#362,#363);
#294=DIRECTION('axis',(0.,0.,1.));
#295=DIRECTION('refdir',(1.,0.,0.));
#296=DIRECTION('center_axis',(0.,1.,0.));
#297=DIRECTION('ref_axis',(1.,0.,0.));
#298=DIRECTION('center_axis',(-1.43043889327795E-006,0.999999999997941,
-1.43966394875692E-006));
#299=DIRECTION('ref_axis',(0.807246477259703,2.0044272575039E-006,0.590214473685441));
#300=DIRECTION('center_axis',(0.,-1.,0.));
#301=DIRECTION('ref_axis',(1.,0.,0.));
#302=DIRECTION('center_axis',(0.,-1.,0.));
#303=DIRECTION('ref_axis',(1.,0.,0.));
#304=DIRECTION('center_axis',(0.,-1.,0.));
#305=DIRECTION('ref_axis',(1.,0.,0.));
#306=DIRECTION('center_axis',(0.,1.,0.));
#307=DIRECTION('ref_axis',(1.,0.,0.));
#308=DIRECTION('center_axis',(-1.,0.,0.));
#309=DIRECTION('ref_axis',(0.,-1.,0.));
#310=DIRECTION($,(0.,-1.,0.));
#311=DIRECTION($,(0.,0.,1.));
#312=DIRECTION($,(0.,-1.,0.));
#313=DIRECTION($,(0.,0.,1.));
#314=DIRECTION('center_axis',(-0.707106781186548,0.707106781186547,0.));
#315=DIRECTION('ref_axis',(-0.707106781186546,-0.707106781186549,0.));
#316=DIRECTION($,(-0.707106781186547,-0.707106781186548,0.));
#317=DIRECTION($,(-0.707106781186547,-0.707106781186548,0.));
#318=DIRECTION($,(0.,0.,1.));
#319=DIRECTION('center_axis',(0.,1.,0.));
#320=DIRECTION('ref_axis',(-1.,0.,0.));
#321=DIRECTION($,(-1.,0.,0.));
#322=DIRECTION($,(-1.,0.,0.));
#323=DIRECTION($,(0.,0.,1.));
#324=DIRECTION('center_axis',(0.738174954341183,0.674609321595391,0.));
#325=DIRECTION('ref_axis',(-0.67460932159539,0.738174954341183,0.));
#326=DIRECTION($,(-0.674609321595391,0.738174954341182,0.));
#327=DIRECTION($,(-0.674609321595391,0.738174954341182,0.));
#328=DIRECTION($,(0.,0.,1.));
#329=DIRECTION('center_axis',(0.,0.,1.));
#330=DIRECTION('ref_axis',(0.748874433679501,-0.662711915225015,0.));
#331=DIRECTION('center_axis',(0.,0.,-1.));
#332=DIRECTION('ref_axis',(0.748874433679501,-0.662711915225015,0.));
#333=DIRECTION('center_axis',(0.,0.,-1.));
#334=DIRECTION('ref_axis',(0.748874433679501,-0.662711915225015,0.));
#335=DIRECTION($,(0.,0.,1.));
#336=DIRECTION('center_axis',(-0.738174954341204,0.674609321595367,0.));
#337=DIRECTION('ref_axis',(-0.674609321595366,-0.738174954341205,0.));
#338=DIRECTION($,(-0.674609321595367,-0.738174954341204,0.));
#339=DIRECTION($,(-0.674609321595367,-0.738174954341204,0.));
#340=DIRECTION($,(0.,0.,1.));
#341=DIRECTION('center_axis',(0.,1.,0.));
#342=DIRECTION('ref_axis',(-1.,0.,0.));
#343=DIRECTION($,(-1.,0.,0.));
#344=DIRECTION($,(-1.,0.,0.));
#345=DIRECTION($,(0.,0.,1.));
#346=DIRECTION('center_axis',(0.707106781186548,0.707106781186548,0.));
#347=DIRECTION('ref_axis',(-0.707106781186548,0.707106781186548,0.));
#348=DIRECTION($,(-0.707106781186548,0.707106781186548,0.));
#349=DIRECTION($,(-0.707106781186548,0.707106781186548,0.));
#350=DIRECTION($,(0.,0.,1.));
#351=DIRECTION('center_axis',(1.,0.,0.));
#352=DIRECTION('ref_axis',(0.,1.,0.));
#353=DIRECTION($,(0.,1.,0.));
#354=DIRECTION($,(0.,1.,0.));
#355=DIRECTION($,(0.,0.,1.));
#356=DIRECTION('center_axis',(0.,-1.,0.));
#357=DIRECTION('ref_axis',(1.,0.,0.));
#358=DIRECTION($,(1.,0.,0.));
#359=DIRECTION($,(1.,0.,0.));
#360=DIRECTION('center_axis',(0.,0.,1.));
#361=DIRECTION('ref_axis',(1.,0.,0.));
#362=DIRECTION('center_axis',(0.,0.,1.));
#363=DIRECTION('ref_axis',(1.,0.,0.));
#364=CARTESIAN_POINT('',(0.,0.,0.));
#365=CARTESIAN_POINT('Origin',(13.4999928582959,6.84763329767421,7.99999280770883));
#366=CARTESIAN_POINT('',(16.4999999999914,6.99785274359466,7.99999280770883));
#367=CARTESIAN_POINT('Origin',(13.4999999999984,6.99784845228834,8.00000000000448));
#368=CARTESIAN_POINT('',(18.9999928582959,8.5,7.99999280770883));
#369=CARTESIAN_POINT('Origin',(13.4999928582959,8.5,7.99999280770883));
#370=CARTESIAN_POINT('Origin',(13.4999928582959,13.25,7.99999280770883));
#371=CARTESIAN_POINT('',(18.9999928582959,16.6905182194369,7.99999280770883));
#372=CARTESIAN_POINT('Ctrl Pts',(18.9999928582959,16.6905182194369,7.99999280770883));
#373=CARTESIAN_POINT('Ctrl Pts',(18.9999928582959,16.6905182194369,8.7265435242663));
#374=CARTESIAN_POINT('Ctrl Pts',(18.8496911822663,16.5405866008625,9.46970270984887));
#375=CARTESIAN_POINT('Ctrl Pts',(18.2835447371728,16.0772677934121,10.8101474275661));
#376=CARTESIAN_POINT('Ctrl Pts',(17.8671709388562,15.7748886292901,11.4109893844068));
#377=CARTESIAN_POINT('Ctrl Pts',(16.9171798320804,15.2464156781776,12.3609803636016));
#378=CARTESIAN_POINT('Ctrl Pts',(16.3151218595121,14.9790036334498,12.7813623609346));
#379=CARTESIAN_POINT('Ctrl Pts',(14.9657519146963,14.6043132041675,13.3514410974208));
#380=CARTESIAN_POINT('Ctrl Pts',(14.217135192065,14.4999993598009,13.4999928077088));
#381=CARTESIAN_POINT('Ctrl Pts',(12.7828501138752,14.5000006402058,13.4999928077088));
#382=CARTESIAN_POINT('Ctrl Pts',(12.0342331924362,14.6043159307313,13.3514409436439));
#383=CARTESIAN_POINT('Ctrl Pts',(10.6848631449164,14.9790092062792,12.7813619563555));
#384=CARTESIAN_POINT('Ctrl Pts',(10.0828052623286,15.2464226614011,12.3609798681686));
#385=CARTESIAN_POINT('Ctrl Pts',(9.132814498637,15.7748980561586,11.4109889768955));
#386=CARTESIAN_POINT('Ctrl Pts',(8.71644088155011,16.0772784704756,10.8101472160506));
#387=CARTESIAN_POINT('Ctrl Pts',(8.15029458592559,16.540599340082,9.4697028118158));
#388=CARTESIAN_POINT('Ctrl Pts',(7.9999928582959,16.6905317419575,8.72654372451431));
#389=CARTESIAN_POINT('Ctrl Pts',(7.9999928582959,16.6905317419575,7.27344189090335));
#390=CARTESIAN_POINT('Ctrl Pts',(8.15029458592559,16.540599340082,6.53028280360187));
#391=CARTESIAN_POINT('Ctrl Pts',(8.71644088155011,16.0772784704756,5.18983839936706));
#392=CARTESIAN_POINT('Ctrl Pts',(9.132814498637,15.7748980561586,4.58899663852219));
#393=CARTESIAN_POINT('Ctrl Pts',(10.0828052623286,15.2464226614011,3.63900574724906));
#394=CARTESIAN_POINT('Ctrl Pts',(10.6848631449164,14.9790092062792,3.21862365906212));
#395=CARTESIAN_POINT('Ctrl Pts',(12.0342331924362,14.6043159307313,2.64854467177372));
#396=CARTESIAN_POINT('Ctrl Pts',(12.7828501138752,14.5000006402058,2.49999280770883));
#397=CARTESIAN_POINT('Ctrl Pts',(14.217135192065,14.4999993598009,2.49999280770883));
#398=CARTESIAN_POINT('Ctrl Pts',(14.9657519146963,14.6043132041675,2.64854451799682));
#399=CARTESIAN_POINT('Ctrl Pts',(16.3151218595121,14.9790036334498,3.21862325448306));
#400=CARTESIAN_POINT('Ctrl Pts',(16.9171798320804,15.2464156781776,3.6390052518161));
#401=CARTESIAN_POINT('Ctrl Pts',(17.8671709388562,15.7748886292901,4.58899623101083));
#402=CARTESIAN_POINT('Ctrl Pts',(18.2835447371728,16.0772677934121,5.18983818785161));
#403=CARTESIAN_POINT('Ctrl Pts',(18.8496911822663,16.5405866008625,6.53028290556879));
#404=CARTESIAN_POINT('Ctrl Pts',(18.9999928582959,16.6905182194369,7.27344209115136));
#405=CARTESIAN_POINT('Ctrl Pts',(18.9999928582959,16.6905182194369,7.99999280770883));
#406=CARTESIAN_POINT('Origin',(13.5,43.4165866921848,8.));
#407=CARTESIAN_POINT('',(16.5,0.,8.));
#408=CARTESIAN_POINT('Origin',(13.5,0.,8.));
#409=CARTESIAN_POINT('Origin',(0.,28.,0.));
#410=CARTESIAN_POINT('',(0.,28.,0.));
#411=CARTESIAN_POINT('',(0.,0.,0.));
#412=CARTESIAN_POINT($,(0.,28.,0.));
#413=CARTESIAN_POINT('',(0.,0.,16.));
#414=CARTESIAN_POINT($,(0.,0.,0.));
#415=CARTESIAN_POINT('',(0.,28.,16.));
#416=CARTESIAN_POINT($,(0.,28.,16.));
#417=CARTESIAN_POINT($,(0.,28.,0.));
#418=CARTESIAN_POINT('Origin',(2.,30.,0.));
#419=CARTESIAN_POINT('',(2.,30.,0.));
#420=CARTESIAN_POINT($,(2.,30.,0.));
#421=CARTESIAN_POINT('',(2.,30.,16.));
#422=CARTESIAN_POINT($,(2.,30.,16.));
#423=CARTESIAN_POINT($,(2.,30.,0.));
#424=CARTESIAN_POINT('Origin',(5.50000000000001,30.,0.));
#425=CARTESIAN_POINT('',(5.50000000000001,30.,0.));
#426=CARTESIAN_POINT($,(5.50000000000001,30.,0.));
#427=CARTESIAN_POINT('',(5.50000000000001,30.,16.));
#428=CARTESIAN_POINT($,(5.50000000000001,30.,16.));
#429=CARTESIAN_POINT($,(5.50000000000001,30.,0.));
#430=CARTESIAN_POINT('Origin',(7.50900453056399,27.8016953218001,0.));
#431=CARTESIAN_POINT('',(7.50900453056399,27.8016953218001,0.));
#432=CARTESIAN_POINT($,(7.50900453056399,27.8016953218001,0.));
#433=CARTESIAN_POINT('',(7.50900453056399,27.8016953218001,16.));
#434=CARTESIAN_POINT($,(7.50900453056399,27.8016953218001,16.));
#435=CARTESIAN_POINT($,(7.50900453056399,27.8016953218001,0.));
#436=CARTESIAN_POINT('Origin',(13.5,22.5,0.));
#437=CARTESIAN_POINT('',(19.490995469436,27.8016953218001,0.));
#438=CARTESIAN_POINT('Origin',(13.5,22.5,0.));
#439=CARTESIAN_POINT('',(19.490995469436,27.8016953218001,16.));
#440=CARTESIAN_POINT('Origin',(13.5,22.5,16.));
#441=CARTESIAN_POINT($,(19.490995469436,27.8016953218001,0.));
#442=CARTESIAN_POINT('Origin',(21.5,30.,0.));
#443=CARTESIAN_POINT('',(21.5,30.,0.));
#444=CARTESIAN_POINT($,(21.5,30.,0.));
#445=CARTESIAN_POINT('',(21.5,30.,16.));
#446=CARTESIAN_POINT($,(21.5,30.,16.));
#447=CARTESIAN_POINT($,(21.5,30.,0.));
#448=CARTESIAN_POINT('Origin',(25.,30.,0.));
#449=CARTESIAN_POINT('',(25.,30.,0.));
#450=CARTESIAN_POINT($,(25.,30.,0.));
#451=CARTESIAN_POINT('',(25.,30.,16.));
#452=CARTESIAN_POINT($,(25.,30.,16.));
#453=CARTESIAN_POINT($,(25.,30.,0.));
#454=CARTESIAN_POINT('Origin',(27.,28.,0.));
#455=CARTESIAN_POINT('',(27.,28.,0.));
#456=CARTESIAN_POINT($,(27.,28.,0.));
#457=CARTESIAN_POINT('',(27.,28.,16.));
#458=CARTESIAN_POINT($,(27.,28.,16.));
#459=CARTESIAN_POINT($,(27.,28.,0.));
#460=CARTESIAN_POINT('Origin',(27.,0.,0.));
#461=CARTESIAN_POINT('',(27.,0.,0.));
#462=CARTESIAN_POINT($,(27.,0.,0.));
#463=CARTESIAN_POINT('',(27.,0.,16.));
#464=CARTESIAN_POINT($,(27.,0.,16.));
#465=CARTESIAN_POINT($,(27.,0.,0.));
#466=CARTESIAN_POINT('Origin',(0.,0.,0.));
#467=CARTESIAN_POINT($,(0.,0.,0.));
#468=CARTESIAN_POINT($,(0.,0.,16.));
#469=CARTESIAN_POINT('Origin',(13.5,14.5406225133105,16.));
#470=CARTESIAN_POINT('Origin',(13.5,14.5406225133105,0.));
#471=UNCERTAINTY_MEASURE_WITH_UNIT(LENGTH_MEASURE(0.01),#473,
'DISTANCE_ACCURACY_VALUE',
'Maximum model space distance between geometric entities at asserted c
onnectivities');
#472=(
GEOMETRIC_REPRESENTATION_CONTEXT(3)
GLOBAL_UNCERTAINTY_ASSIGNED_CONTEXT((#471))
GLOBAL_UNIT_ASSIGNED_CONTEXT((#473,#476,#474))
REPRESENTATION_CONTEXT('','3D')
);
#473=(
LENGTH_UNIT()
NAMED_UNIT(*)
SI_UNIT(.MILLI.,.METRE.)
);
#474=(
NAMED_UNIT(*)
SI_UNIT($,.STERADIAN.)
SOLID_ANGLE_UNIT()
);
#475=DIMENSIONAL_EXPONENTS(0.,0.,0.,0.,0.,0.,0.);
#476=(
CONVERSION_BASED_UNIT('degree',#478)
NAMED_UNIT(#475)
PLANE_ANGLE_UNIT()
);
#477=(
NAMED_UNIT(*)
PLANE_ANGLE_UNIT()
SI_UNIT($,.RADIAN.)
);
#478=PLANE_ANGLE_MEASURE_WITH_UNIT(PLANE_ANGLE_MEASURE(0.01745329252),#477);
#479=SHAPE_DEFINITION_REPRESENTATION(#480,#481);
#480=PRODUCT_DEFINITION_SHAPE('',$,#483);
#481=SHAPE_REPRESENTATION('',(#273),#472);
#482=PRODUCT_DEFINITION_CONTEXT('3D Mechanical Parts',#486,'design');
#483=PRODUCT_DEFINITION('AD000014','AD000014',#484,#482);
#484=PRODUCT_DEFINITION_FORMATION('',$,#488);
#485=APPLICATION_PROTOCOL_DEFINITION('international standard',
'automotive_design',2009,#486);
#486=APPLICATION_CONTEXT(
'Core Data for Automotive Mechanical Design Process');
#487=PRODUCT_CONTEXT('3D Mechanical Parts',#486,'mechanical');
#488=PRODUCT('AD000014','AD000014',$,(#487));
#489=PRESENTATION_STYLE_ASSIGNMENT((#490));
#490=SURFACE_STYLE_USAGE(.BOTH.,#491);
#491=SURFACE_SIDE_STYLE($,(#492));
#492=SURFACE_STYLE_FILL_AREA(#493);
#493=FILL_AREA_STYLE($,(#494));
#494=FILL_AREA_STYLE_COLOUR($,#495);
#495=COLOUR_RGB('',0.749019607843137,0.749019607843137,0.749019607843137);
ENDSEC;
END-ISO-10303-21;
