ISO-10303-21;
HEADER;
/* Generated by software containing ST-Developer
 * from STEP Tools, Inc. (www.steptools.com) 
 */

FILE_DESCRIPTION(
/* description */ (''),
/* implementation_level */ '2;1');

FILE_NAME(
/* name */ 
'C:\\Users\\mitarbeiter\\Desktop\\3D\\Imported Components\\AO98E084\\A
O98E084.stp',
/* time_stamp */ '2016-09-28T10:46:07+02:00',
/* author */ ('mitarbeiter'),
/* organization */ (''),
/* preprocessor_version */ 'ST-DEVELOPER v15.2',
/* originating_system */ 'Autodesk Inventor 2014',
/* authorisation */ '');

FILE_SCHEMA (('AUTOMOTIVE_DESIGN { 1 0 10303 214 3 1 1 }'));
ENDSEC;

DATA;
#10=SHAPE_REPRESENTATION_RELATIONSHIP('SRR','None',#450,#11);
#11=ADVANCED_BREP_SHAPE_REPRESENTATION($,(#262),#444);
#12=STYLED_ITEM($,(#459),#262);
#13=PLANE($,#273);
#14=PLANE($,#279);
#15=PLANE($,#290);
#16=PLANE($,#291);
#17=PLANE($,#292);
#18=PLANE($,#293);
#19=LINE($,#383,#35);
#20=LINE($,#386,#36);
#21=LINE($,#394,#37);
#22=LINE($,#396,#38);
#23=LINE($,#400,#39);
#24=LINE($,#404,#40);
#25=LINE($,#412,#41);
#26=LINE($,#414,#42);
#27=LINE($,#415,#43);
#28=LINE($,#419,#44);
#29=LINE($,#424,#45);
#30=LINE($,#425,#46);
#31=LINE($,#429,#47);
#32=LINE($,#437,#48);
#33=LINE($,#439,#49);
#34=LINE($,#440,#50);
#35=VECTOR($,#306,4.);
#36=VECTOR($,#309,4.);
#37=VECTOR($,#318,117.);
#38=VECTOR($,#319,27.);
#39=VECTOR($,#322,117.);
#40=VECTOR($,#325,27.);
#41=VECTOR($,#334,4.);
#42=VECTOR($,#335,117.);
#43=VECTOR($,#336,4.);
#44=VECTOR($,#341,4.);
#45=VECTOR($,#346,4.);
#46=VECTOR($,#347,4.);
#47=VECTOR($,#352,4.);
#48=VECTOR($,#363,27.);
#49=VECTOR($,#366,27.);
#50=VECTOR($,#367,117.);
#51=FACE_BOUND($,#78,.T.);
#52=FACE_BOUND($,#81,.T.);
#53=FACE_BOUND($,#83,.T.);
#54=FACE_BOUND($,#84,.T.);
#55=FACE_BOUND($,#85,.T.);
#56=FACE_BOUND($,#86,.T.);
#57=FACE_BOUND($,#92,.T.);
#58=FACE_BOUND($,#94,.T.);
#59=FACE_BOUND($,#97,.T.);
#60=FACE_BOUND($,#98,.T.);
#61=FACE_BOUND($,#99,.T.);
#62=FACE_BOUND($,#100,.T.);
#63=FACE_OUTER_BOUND($,#77,.T.);
#64=FACE_OUTER_BOUND($,#79,.T.);
#65=FACE_OUTER_BOUND($,#80,.T.);
#66=FACE_OUTER_BOUND($,#82,.T.);
#67=FACE_OUTER_BOUND($,#87,.T.);
#68=FACE_OUTER_BOUND($,#88,.T.);
#69=FACE_OUTER_BOUND($,#89,.T.);
#70=FACE_OUTER_BOUND($,#90,.T.);
#71=FACE_OUTER_BOUND($,#91,.T.);
#72=FACE_OUTER_BOUND($,#93,.T.);
#73=FACE_OUTER_BOUND($,#95,.T.);
#74=FACE_OUTER_BOUND($,#96,.T.);
#75=FACE_OUTER_BOUND($,#101,.T.);
#76=FACE_OUTER_BOUND($,#102,.T.);
#77=EDGE_LOOP($,(#175));
#78=EDGE_LOOP($,(#176));
#79=EDGE_LOOP($,(#177,#178,#179,#180));
#80=EDGE_LOOP($,(#181));
#81=EDGE_LOOP($,(#182));
#82=EDGE_LOOP($,(#183,#184,#185,#186,#187,#188,#189,#190));
#83=EDGE_LOOP($,(#191));
#84=EDGE_LOOP($,(#192));
#85=EDGE_LOOP($,(#193));
#86=EDGE_LOOP($,(#194));
#87=EDGE_LOOP($,(#195,#196,#197,#198));
#88=EDGE_LOOP($,(#199,#200,#201,#202));
#89=EDGE_LOOP($,(#203,#204,#205,#206));
#90=EDGE_LOOP($,(#207,#208,#209,#210));
#91=EDGE_LOOP($,(#211));
#92=EDGE_LOOP($,(#212));
#93=EDGE_LOOP($,(#213));
#94=EDGE_LOOP($,(#214));
#95=EDGE_LOOP($,(#215,#216,#217,#218));
#96=EDGE_LOOP($,(#219,#220,#221,#222,#223,#224,#225,#226));
#97=EDGE_LOOP($,(#227));
#98=EDGE_LOOP($,(#228));
#99=EDGE_LOOP($,(#229));
#100=EDGE_LOOP($,(#230));
#101=EDGE_LOOP($,(#231,#232,#233,#234));
#102=EDGE_LOOP($,(#235,#236,#237,#238));
#103=CIRCLE($,#265,3.25);
#104=CIRCLE($,#266,3.25);
#105=CIRCLE($,#268,1.5);
#106=CIRCLE($,#269,1.5);
#107=CIRCLE($,#271,3.25);
#108=CIRCLE($,#272,3.25);
#109=CIRCLE($,#274,1.5);
#110=CIRCLE($,#275,1.5);
#111=CIRCLE($,#276,1.5);
#112=CIRCLE($,#277,3.25);
#113=CIRCLE($,#278,5.5);
#114=CIRCLE($,#281,1.5);
#115=CIRCLE($,#283,1.5);
#116=CIRCLE($,#285,1.5);
#117=CIRCLE($,#287,3.25);
#118=CIRCLE($,#289,5.5);
#119=VERTEX_POINT($,#374);
#120=VERTEX_POINT($,#376);
#121=VERTEX_POINT($,#379);
#122=VERTEX_POINT($,#380);
#123=VERTEX_POINT($,#382);
#124=VERTEX_POINT($,#384);
#125=VERTEX_POINT($,#388);
#126=VERTEX_POINT($,#390);
#127=VERTEX_POINT($,#393);
#128=VERTEX_POINT($,#395);
#129=VERTEX_POINT($,#397);
#130=VERTEX_POINT($,#399);
#131=VERTEX_POINT($,#401);
#132=VERTEX_POINT($,#403);
#133=VERTEX_POINT($,#406);
#134=VERTEX_POINT($,#408);
#135=VERTEX_POINT($,#411);
#136=VERTEX_POINT($,#413);
#137=VERTEX_POINT($,#417);
#138=VERTEX_POINT($,#421);
#139=VERTEX_POINT($,#422);
#140=VERTEX_POINT($,#427);
#141=VERTEX_POINT($,#431);
#142=VERTEX_POINT($,#434);
#143=EDGE_CURVE($,#119,#119,#103,.T.);
#144=EDGE_CURVE($,#120,#120,#104,.T.);
#145=EDGE_CURVE($,#121,#122,#105,.T.);
#146=EDGE_CURVE($,#123,#121,#19,.F.);
#147=EDGE_CURVE($,#124,#123,#106,.T.);
#148=EDGE_CURVE($,#122,#124,#20,.T.);
#149=EDGE_CURVE($,#125,#125,#107,.T.);
#150=EDGE_CURVE($,#126,#126,#108,.T.);
#151=EDGE_CURVE($,#124,#127,#21,.T.);
#152=EDGE_CURVE($,#128,#123,#22,.T.);
#153=EDGE_CURVE($,#128,#129,#109,.T.);
#154=EDGE_CURVE($,#130,#129,#23,.T.);
#155=EDGE_CURVE($,#130,#131,#110,.T.);
#156=EDGE_CURVE($,#132,#131,#24,.T.);
#157=EDGE_CURVE($,#132,#127,#111,.T.);
#158=EDGE_CURVE($,#133,#133,#112,.T.);
#159=EDGE_CURVE($,#134,#134,#113,.T.);
#160=EDGE_CURVE($,#129,#135,#25,.F.);
#161=EDGE_CURVE($,#135,#136,#26,.T.);
#162=EDGE_CURVE($,#136,#130,#27,.T.);
#163=EDGE_CURVE($,#135,#137,#114,.T.);
#164=EDGE_CURVE($,#137,#128,#28,.T.);
#165=EDGE_CURVE($,#138,#139,#115,.T.);
#166=EDGE_CURVE($,#127,#138,#29,.F.);
#167=EDGE_CURVE($,#139,#132,#30,.T.);
#168=EDGE_CURVE($,#140,#136,#116,.T.);
#169=EDGE_CURVE($,#131,#140,#31,.F.);
#170=EDGE_CURVE($,#141,#141,#117,.T.);
#171=EDGE_CURVE($,#142,#142,#118,.T.);
#172=EDGE_CURVE($,#140,#139,#32,.T.);
#173=EDGE_CURVE($,#121,#137,#33,.T.);
#174=EDGE_CURVE($,#138,#122,#34,.T.);
#175=ORIENTED_EDGE($,*,*,#143,.T.);
#176=ORIENTED_EDGE($,*,*,#144,.F.);
#177=ORIENTED_EDGE($,*,*,#145,.F.);
#178=ORIENTED_EDGE($,*,*,#146,.F.);
#179=ORIENTED_EDGE($,*,*,#147,.F.);
#180=ORIENTED_EDGE($,*,*,#148,.F.);
#181=ORIENTED_EDGE($,*,*,#149,.T.);
#182=ORIENTED_EDGE($,*,*,#150,.F.);
#183=ORIENTED_EDGE($,*,*,#151,.F.);
#184=ORIENTED_EDGE($,*,*,#147,.T.);
#185=ORIENTED_EDGE($,*,*,#152,.F.);
#186=ORIENTED_EDGE($,*,*,#153,.T.);
#187=ORIENTED_EDGE($,*,*,#154,.F.);
#188=ORIENTED_EDGE($,*,*,#155,.T.);
#189=ORIENTED_EDGE($,*,*,#156,.F.);
#190=ORIENTED_EDGE($,*,*,#157,.T.);
#191=ORIENTED_EDGE($,*,*,#144,.T.);
#192=ORIENTED_EDGE($,*,*,#150,.T.);
#193=ORIENTED_EDGE($,*,*,#158,.T.);
#194=ORIENTED_EDGE($,*,*,#159,.T.);
#195=ORIENTED_EDGE($,*,*,#154,.T.);
#196=ORIENTED_EDGE($,*,*,#160,.T.);
#197=ORIENTED_EDGE($,*,*,#161,.T.);
#198=ORIENTED_EDGE($,*,*,#162,.T.);
#199=ORIENTED_EDGE($,*,*,#163,.F.);
#200=ORIENTED_EDGE($,*,*,#160,.F.);
#201=ORIENTED_EDGE($,*,*,#153,.F.);
#202=ORIENTED_EDGE($,*,*,#164,.F.);
#203=ORIENTED_EDGE($,*,*,#165,.F.);
#204=ORIENTED_EDGE($,*,*,#166,.F.);
#205=ORIENTED_EDGE($,*,*,#157,.F.);
#206=ORIENTED_EDGE($,*,*,#167,.F.);
#207=ORIENTED_EDGE($,*,*,#168,.F.);
#208=ORIENTED_EDGE($,*,*,#169,.F.);
#209=ORIENTED_EDGE($,*,*,#155,.F.);
#210=ORIENTED_EDGE($,*,*,#162,.F.);
#211=ORIENTED_EDGE($,*,*,#170,.T.);
#212=ORIENTED_EDGE($,*,*,#158,.F.);
#213=ORIENTED_EDGE($,*,*,#171,.T.);
#214=ORIENTED_EDGE($,*,*,#159,.F.);
#215=ORIENTED_EDGE($,*,*,#172,.T.);
#216=ORIENTED_EDGE($,*,*,#167,.T.);
#217=ORIENTED_EDGE($,*,*,#156,.T.);
#218=ORIENTED_EDGE($,*,*,#169,.T.);
#219=ORIENTED_EDGE($,*,*,#173,.F.);
#220=ORIENTED_EDGE($,*,*,#145,.T.);
#221=ORIENTED_EDGE($,*,*,#174,.F.);
#222=ORIENTED_EDGE($,*,*,#165,.T.);
#223=ORIENTED_EDGE($,*,*,#172,.F.);
#224=ORIENTED_EDGE($,*,*,#168,.T.);
#225=ORIENTED_EDGE($,*,*,#161,.F.);
#226=ORIENTED_EDGE($,*,*,#163,.T.);
#227=ORIENTED_EDGE($,*,*,#143,.F.);
#228=ORIENTED_EDGE($,*,*,#149,.F.);
#229=ORIENTED_EDGE($,*,*,#170,.F.);
#230=ORIENTED_EDGE($,*,*,#171,.F.);
#231=ORIENTED_EDGE($,*,*,#174,.T.);
#232=ORIENTED_EDGE($,*,*,#148,.T.);
#233=ORIENTED_EDGE($,*,*,#151,.T.);
#234=ORIENTED_EDGE($,*,*,#166,.T.);
#235=ORIENTED_EDGE($,*,*,#152,.T.);
#236=ORIENTED_EDGE($,*,*,#146,.T.);
#237=ORIENTED_EDGE($,*,*,#173,.T.);
#238=ORIENTED_EDGE($,*,*,#164,.T.);
#239=CYLINDRICAL_SURFACE($,#264,3.25);
#240=CYLINDRICAL_SURFACE($,#267,1.5);
#241=CYLINDRICAL_SURFACE($,#270,3.25);
#242=CYLINDRICAL_SURFACE($,#280,1.5);
#243=CYLINDRICAL_SURFACE($,#282,1.5);
#244=CYLINDRICAL_SURFACE($,#284,1.5);
#245=CYLINDRICAL_SURFACE($,#286,3.25);
#246=CYLINDRICAL_SURFACE($,#288,5.5);
#247=ADVANCED_FACE($,(#63,#51),#239,.F.);
#248=ADVANCED_FACE($,(#64),#240,.T.);
#249=ADVANCED_FACE($,(#65,#52),#241,.F.);
#250=ADVANCED_FACE($,(#66,#53,#54,#55,#56),#13,.T.);
#251=ADVANCED_FACE($,(#67),#14,.T.);
#252=ADVANCED_FACE($,(#68),#242,.T.);
#253=ADVANCED_FACE($,(#69),#243,.T.);
#254=ADVANCED_FACE($,(#70),#244,.T.);
#255=ADVANCED_FACE($,(#71,#57),#245,.F.);
#256=ADVANCED_FACE($,(#72,#58),#246,.F.);
#257=ADVANCED_FACE($,(#73),#15,.T.);
#258=ADVANCED_FACE($,(#74,#59,#60,#61,#62),#16,.T.);
#259=ADVANCED_FACE($,(#75),#17,.T.);
#260=ADVANCED_FACE($,(#76),#18,.T.);
#261=CLOSED_SHELL($,(#247,#248,#249,#250,#251,#252,#253,#254,#255,#256,
#257,#258,#259,#260));
#262=MANIFOLD_SOLID_BREP('1',#261);
#263=AXIS2_PLACEMENT_3D('placement',#372,#294,#295);
#264=AXIS2_PLACEMENT_3D($,#373,#296,#297);
#265=AXIS2_PLACEMENT_3D($,#375,#298,#299);
#266=AXIS2_PLACEMENT_3D($,#377,#300,#301);
#267=AXIS2_PLACEMENT_3D($,#378,#302,#303);
#268=AXIS2_PLACEMENT_3D($,#381,#304,#305);
#269=AXIS2_PLACEMENT_3D($,#385,#307,#308);
#270=AXIS2_PLACEMENT_3D($,#387,#310,#311);
#271=AXIS2_PLACEMENT_3D($,#389,#312,#313);
#272=AXIS2_PLACEMENT_3D($,#391,#314,#315);
#273=AXIS2_PLACEMENT_3D($,#392,#316,#317);
#274=AXIS2_PLACEMENT_3D($,#398,#320,#321);
#275=AXIS2_PLACEMENT_3D($,#402,#323,#324);
#276=AXIS2_PLACEMENT_3D($,#405,#326,#327);
#277=AXIS2_PLACEMENT_3D($,#407,#328,#329);
#278=AXIS2_PLACEMENT_3D($,#409,#330,#331);
#279=AXIS2_PLACEMENT_3D($,#410,#332,#333);
#280=AXIS2_PLACEMENT_3D($,#416,#337,#338);
#281=AXIS2_PLACEMENT_3D($,#418,#339,#340);
#282=AXIS2_PLACEMENT_3D($,#420,#342,#343);
#283=AXIS2_PLACEMENT_3D($,#423,#344,#345);
#284=AXIS2_PLACEMENT_3D($,#426,#348,#349);
#285=AXIS2_PLACEMENT_3D($,#428,#350,#351);
#286=AXIS2_PLACEMENT_3D($,#430,#353,#354);
#287=AXIS2_PLACEMENT_3D($,#432,#355,#356);
#288=AXIS2_PLACEMENT_3D($,#433,#357,#358);
#289=AXIS2_PLACEMENT_3D($,#435,#359,#360);
#290=AXIS2_PLACEMENT_3D($,#436,#361,#362);
#291=AXIS2_PLACEMENT_3D($,#438,#364,#365);
#292=AXIS2_PLACEMENT_3D($,#441,#368,#369);
#293=AXIS2_PLACEMENT_3D($,#442,#370,#371);
#294=DIRECTION('axis',(0.,0.,1.));
#295=DIRECTION('refdir',(1.,0.,0.));
#296=DIRECTION('center_axis',(0.,0.,1.));
#297=DIRECTION('ref_axis',(1.,0.,0.));
#298=DIRECTION('center_axis',(0.,0.,-1.));
#299=DIRECTION('ref_axis',(-1.,0.,0.));
#300=DIRECTION('center_axis',(0.,0.,-1.));
#301=DIRECTION('ref_axis',(1.,0.,0.));
#302=DIRECTION('center_axis',(0.,0.,-1.));
#303=DIRECTION('ref_axis',(1.,0.,0.));
#304=DIRECTION('center_axis',(0.,0.,-1.));
#305=DIRECTION('ref_axis',(-1.,0.,0.));
#306=DIRECTION($,(0.,0.,1.));
#307=DIRECTION('center_axis',(0.,0.,1.));
#308=DIRECTION('ref_axis',(1.,0.,0.));
#309=DIRECTION($,(0.,0.,1.));
#310=DIRECTION('center_axis',(0.,0.,1.));
#311=DIRECTION('ref_axis',(1.,0.,0.));
#312=DIRECTION('center_axis',(0.,0.,-1.));
#313=DIRECTION('ref_axis',(-1.,0.,0.));
#314=DIRECTION('center_axis',(0.,0.,-1.));
#315=DIRECTION('ref_axis',(1.,0.,0.));
#316=DIRECTION('center_axis',(0.,0.,1.));
#317=DIRECTION('ref_axis',(1.,0.,0.));
#318=DIRECTION($,(1.,0.,0.));
#319=DIRECTION($,(0.,1.,0.));
#320=DIRECTION('center_axis',(0.,0.,1.));
#321=DIRECTION('ref_axis',(1.,0.,0.));
#322=DIRECTION($,(-1.,0.,0.));
#323=DIRECTION('center_axis',(0.,0.,1.));
#324=DIRECTION('ref_axis',(1.,0.,0.));
#325=DIRECTION($,(0.,-1.,0.));
#326=DIRECTION('center_axis',(0.,0.,1.));
#327=DIRECTION('ref_axis',(1.,0.,0.));
#328=DIRECTION('center_axis',(0.,0.,-1.));
#329=DIRECTION('ref_axis',(1.,0.,0.));
#330=DIRECTION('center_axis',(0.,0.,-1.));
#331=DIRECTION('ref_axis',(1.,0.,0.));
#332=DIRECTION('center_axis',(0.,-1.,0.));
#333=DIRECTION('ref_axis',(0.,0.,-1.));
#334=DIRECTION($,(0.,0.,1.));
#335=DIRECTION($,(1.,0.,0.));
#336=DIRECTION($,(0.,0.,1.));
#337=DIRECTION('center_axis',(0.,0.,-1.));
#338=DIRECTION('ref_axis',(1.,0.,0.));
#339=DIRECTION('center_axis',(0.,0.,-1.));
#340=DIRECTION('ref_axis',(-1.,0.,0.));
#341=DIRECTION($,(0.,0.,1.));
#342=DIRECTION('center_axis',(0.,0.,-1.));
#343=DIRECTION('ref_axis',(1.,0.,0.));
#344=DIRECTION('center_axis',(0.,0.,-1.));
#345=DIRECTION('ref_axis',(-1.,0.,0.));
#346=DIRECTION($,(0.,0.,1.));
#347=DIRECTION($,(0.,0.,1.));
#348=DIRECTION('center_axis',(0.,0.,-1.));
#349=DIRECTION('ref_axis',(1.,0.,0.));
#350=DIRECTION('center_axis',(0.,0.,-1.));
#351=DIRECTION('ref_axis',(-1.,0.,0.));
#352=DIRECTION($,(0.,0.,1.));
#353=DIRECTION('center_axis',(0.,0.,1.));
#354=DIRECTION('ref_axis',(1.,0.,0.));
#355=DIRECTION('center_axis',(0.,0.,-1.));
#356=DIRECTION('ref_axis',(-1.,0.,0.));
#357=DIRECTION('center_axis',(0.,0.,1.));
#358=DIRECTION('ref_axis',(1.,0.,0.));
#359=DIRECTION('center_axis',(0.,0.,-1.));
#360=DIRECTION('ref_axis',(-1.,0.,0.));
#361=DIRECTION('center_axis',(1.,0.,0.));
#362=DIRECTION('ref_axis',(0.,0.,-1.));
#363=DIRECTION($,(0.,1.,0.));
#364=DIRECTION('center_axis',(0.,0.,-1.));
#365=DIRECTION('ref_axis',(-1.,0.,0.));
#366=DIRECTION($,(0.,-1.,0.));
#367=DIRECTION($,(-1.,0.,0.));
#368=DIRECTION('center_axis',(0.,1.,0.));
#369=DIRECTION('ref_axis',(0.,0.,1.));
#370=DIRECTION('center_axis',(-1.,0.,0.));
#371=DIRECTION('ref_axis',(0.,0.,1.));
#372=CARTESIAN_POINT('',(0.,0.,0.));
#373=CARTESIAN_POINT('Origin',(15.,15.,4.));
#374=CARTESIAN_POINT('',(11.75,15.,0.));
#375=CARTESIAN_POINT('Origin',(15.,15.,0.));
#376=CARTESIAN_POINT('',(18.25,15.,4.));
#377=CARTESIAN_POINT('Origin',(15.,15.,4.));
#378=CARTESIAN_POINT('Origin',(1.5,28.5,0.));
#379=CARTESIAN_POINT('',(0.,28.5,0.));
#380=CARTESIAN_POINT('',(1.5,30.,0.));
#381=CARTESIAN_POINT('Origin',(1.5,28.5,0.));
#382=CARTESIAN_POINT('',(0.,28.5,4.));
#383=CARTESIAN_POINT($,(0.,28.5,0.));
#384=CARTESIAN_POINT('',(1.5,30.,4.));
#385=CARTESIAN_POINT('Origin',(1.5,28.5,4.));
#386=CARTESIAN_POINT($,(1.5,30.,0.));
#387=CARTESIAN_POINT('Origin',(30.,15.,4.));
#388=CARTESIAN_POINT('',(26.75,15.,0.));
#389=CARTESIAN_POINT('Origin',(30.,15.,0.));
#390=CARTESIAN_POINT('',(33.25,15.,4.));
#391=CARTESIAN_POINT('Origin',(30.,15.,4.));
#392=CARTESIAN_POINT('Origin',(60.,15.,4.));
#393=CARTESIAN_POINT('',(118.5,30.,4.));
#394=CARTESIAN_POINT($,(60.,30.,4.));
#395=CARTESIAN_POINT('',(0.,1.5,4.));
#396=CARTESIAN_POINT($,(0.,15.,4.));
#397=CARTESIAN_POINT('',(1.5,0.,4.));
#398=CARTESIAN_POINT('Origin',(1.5,1.5,4.));
#399=CARTESIAN_POINT('',(118.5,0.,4.));
#400=CARTESIAN_POINT($,(60.,0.,4.));
#401=CARTESIAN_POINT('',(120.,1.5,4.));
#402=CARTESIAN_POINT('Origin',(118.5,1.5,4.));
#403=CARTESIAN_POINT('',(120.,28.5,4.));
#404=CARTESIAN_POINT($,(120.,15.,4.));
#405=CARTESIAN_POINT('Origin',(118.5,28.5,4.));
#406=CARTESIAN_POINT('',(48.25,15.,4.));
#407=CARTESIAN_POINT('Origin',(45.,15.,4.));
#408=CARTESIAN_POINT('',(110.5,15.,4.));
#409=CARTESIAN_POINT('Origin',(105.,15.,4.));
#410=CARTESIAN_POINT('Origin',(60.,0.,0.));
#411=CARTESIAN_POINT('',(1.5,0.,0.));
#412=CARTESIAN_POINT($,(1.5,0.,0.));
#413=CARTESIAN_POINT('',(118.5,0.,0.));
#414=CARTESIAN_POINT($,(60.,0.,0.));
#415=CARTESIAN_POINT($,(118.5,0.,0.));
#416=CARTESIAN_POINT('Origin',(1.5,1.5,0.));
#417=CARTESIAN_POINT('',(0.,1.5,0.));
#418=CARTESIAN_POINT('Origin',(1.5,1.5,0.));
#419=CARTESIAN_POINT($,(0.,1.5,0.));
#420=CARTESIAN_POINT('Origin',(118.5,28.5,0.));
#421=CARTESIAN_POINT('',(118.5,30.,0.));
#422=CARTESIAN_POINT('',(120.,28.5,0.));
#423=CARTESIAN_POINT('Origin',(118.5,28.5,0.));
#424=CARTESIAN_POINT($,(118.5,30.,0.));
#425=CARTESIAN_POINT($,(120.,28.5,0.));
#426=CARTESIAN_POINT('Origin',(118.5,1.5,0.));
#427=CARTESIAN_POINT('',(120.,1.5,0.));
#428=CARTESIAN_POINT('Origin',(118.5,1.5,0.));
#429=CARTESIAN_POINT($,(120.,1.5,0.));
#430=CARTESIAN_POINT('Origin',(45.,15.,4.));
#431=CARTESIAN_POINT('',(41.75,15.,0.));
#432=CARTESIAN_POINT('Origin',(45.,15.,0.));
#433=CARTESIAN_POINT('Origin',(105.,15.,4.));
#434=CARTESIAN_POINT('',(99.5,15.,0.));
#435=CARTESIAN_POINT('Origin',(105.,15.,0.));
#436=CARTESIAN_POINT('Origin',(120.,15.,0.));
#437=CARTESIAN_POINT($,(120.,15.,0.));
#438=CARTESIAN_POINT('Origin',(60.,15.,0.));
#439=CARTESIAN_POINT($,(0.,15.,0.));
#440=CARTESIAN_POINT($,(60.,30.,0.));
#441=CARTESIAN_POINT('Origin',(60.,30.,0.));
#442=CARTESIAN_POINT('Origin',(0.,15.,0.));
#443=UNCERTAINTY_MEASURE_WITH_UNIT(LENGTH_MEASURE(0.01),#445,
'DISTANCE_ACCURACY_VALUE',
'Maximum model space distance between geometric entities at asserted c
onnectivities');
#444=(
GEOMETRIC_REPRESENTATION_CONTEXT(3)
GLOBAL_UNCERTAINTY_ASSIGNED_CONTEXT((#443))
GLOBAL_UNIT_ASSIGNED_CONTEXT((#445,#447,#446))
REPRESENTATION_CONTEXT('','3D')
);
#445=(
LENGTH_UNIT()
NAMED_UNIT(*)
SI_UNIT(.MILLI.,.METRE.)
);
#446=(
NAMED_UNIT(*)
SI_UNIT($,.STERADIAN.)
SOLID_ANGLE_UNIT()
);
#447=(
NAMED_UNIT(*)
PLANE_ANGLE_UNIT()
SI_UNIT($,.RADIAN.)
);
#448=SHAPE_DEFINITION_REPRESENTATION(#449,#450);
#449=PRODUCT_DEFINITION_SHAPE('',$,#452);
#450=SHAPE_REPRESENTATION('',(#263),#444);
#451=PRODUCT_DEFINITION_CONTEXT('3D Mechanical Parts',#455,'design');
#452=PRODUCT_DEFINITION('AO98E084','AO98E084',#453,#451);
#453=PRODUCT_DEFINITION_FORMATION('',$,#457);
#454=APPLICATION_PROTOCOL_DEFINITION('international standard',
'automotive_design',2009,#455);
#455=APPLICATION_CONTEXT(
'Core Data for Automotive Mechanical Design Process');
#456=PRODUCT_CONTEXT('3D Mechanical Parts',#455,'mechanical');
#457=PRODUCT('AO98E084','AO98E084',$,(#456));
#458=PRESENTATION_STYLE_ASSIGNMENT((#460));
#459=PRESENTATION_STYLE_ASSIGNMENT((#461));
#460=SURFACE_STYLE_USAGE(.BOTH.,#462);
#461=SURFACE_STYLE_USAGE(.BOTH.,#463);
#462=SURFACE_SIDE_STYLE($,(#464));
#463=SURFACE_SIDE_STYLE($,(#465));
#464=SURFACE_STYLE_FILL_AREA(#466);
#465=SURFACE_STYLE_FILL_AREA(#467);
#466=FILL_AREA_STYLE($,(#468));
#467=FILL_AREA_STYLE($,(#469));
#468=FILL_AREA_STYLE_COLOUR($,#470);
#469=FILL_AREA_STYLE_COLOUR($,#471);
#470=COLOUR_RGB('',0.749019607843137,0.749019607843137,0.749019607843137);
#471=COLOUR_RGB('',0.752941176470588,0.752941176470588,0.752941176470588);
ENDSEC;
END-ISO-10303-21;
