ISO-10303-21;
HEADER;
/* Generated by software containing ST-Developer
 * from STEP Tools, Inc. (www.steptools.com) 
 */

FILE_DESCRIPTION(
/* description */ (''),
/* implementation_level */ '2;1');

FILE_NAME(
/* name */ 
'C:\\Users\\mitarbeiter\\Desktop\\3D\\Imported Components\\LT208157\\L
T208157.stp',
/* time_stamp */ '2016-10-06T14:33:55+02:00',
/* author */ ('mitarbeiter'),
/* organization */ (''),
/* preprocessor_version */ 'ST-DEVELOPER v15.2',
/* originating_system */ 'Autodesk Inventor 2014',
/* authorisation */ '');

FILE_SCHEMA (('AUTOMOTIVE_DESIGN { 1 0 10303 214 3 1 1 }'));
ENDSEC;

DATA;
#10=SHAPE_REPRESENTATION_RELATIONSHIP('SRR','None',#314,#11);
#11=ADVANCED_BREP_SHAPE_REPRESENTATION($,(#176),#308);
#12=LINE($,#280,#16);
#13=LINE($,#283,#17);
#14=LINE($,#287,#18);
#15=LINE($,#290,#19);
#16=VECTOR($,#226,5.);
#17=VECTOR($,#229,5.);
#18=VECTOR($,#234,5.);
#19=VECTOR($,#237,5.);
#20=CYLINDRICAL_SURFACE($,#187,1.1005);
#21=CYLINDRICAL_SURFACE($,#189,0.25000000000248);
#22=CYLINDRICAL_SURFACE($,#191,1.1005);
#23=CYLINDRICAL_SURFACE($,#193,0.25000000000248);
#24=CYLINDRICAL_SURFACE($,#202,3.);
#25=CYLINDRICAL_SURFACE($,#203,2.25);
#26=PLANE($,#181);
#27=PLANE($,#182);
#28=PLANE($,#201);
#29=FACE_BOUND($,#48,.T.);
#30=FACE_BOUND($,#56,.T.);
#31=FACE_BOUND($,#58,.T.);
#32=FACE_BOUND($,#60,.T.);
#33=FACE_BOUND($,#62,.T.);
#34=FACE_BOUND($,#64,.T.);
#35=FACE_OUTER_BOUND($,#47,.T.);
#36=FACE_OUTER_BOUND($,#49,.T.);
#37=FACE_OUTER_BOUND($,#50,.T.);
#38=FACE_OUTER_BOUND($,#51,.T.);
#39=FACE_OUTER_BOUND($,#52,.T.);
#40=FACE_OUTER_BOUND($,#53,.T.);
#41=FACE_OUTER_BOUND($,#54,.T.);
#42=FACE_OUTER_BOUND($,#55,.T.);
#43=FACE_OUTER_BOUND($,#57,.T.);
#44=FACE_OUTER_BOUND($,#59,.T.);
#45=FACE_OUTER_BOUND($,#61,.T.);
#46=FACE_OUTER_BOUND($,#63,.T.);
#47=EDGE_LOOP($,(#111));
#48=EDGE_LOOP($,(#112));
#49=EDGE_LOOP($,(#113));
#50=EDGE_LOOP($,(#114,#115,#116,#117));
#51=EDGE_LOOP($,(#118,#119,#120,#121));
#52=EDGE_LOOP($,(#122,#123,#124,#125));
#53=EDGE_LOOP($,(#126,#127,#128,#129));
#54=EDGE_LOOP($,(#130,#131,#132,#133));
#55=EDGE_LOOP($,(#134));
#56=EDGE_LOOP($,(#135));
#57=EDGE_LOOP($,(#136));
#58=EDGE_LOOP($,(#137));
#59=EDGE_LOOP($,(#138));
#60=EDGE_LOOP($,(#139,#140,#141,#142));
#61=EDGE_LOOP($,(#143));
#62=EDGE_LOOP($,(#144));
#63=EDGE_LOOP($,(#145));
#64=EDGE_LOOP($,(#146));
#65=CIRCLE($,#179,2.25);
#66=CIRCLE($,#180,1.49944465005349);
#67=CIRCLE($,#183,0.25000000000248);
#68=CIRCLE($,#184,1.1005);
#69=CIRCLE($,#185,0.25000000000248);
#70=CIRCLE($,#186,1.1005);
#71=CIRCLE($,#188,1.1005);
#72=CIRCLE($,#190,0.25000000000248);
#73=CIRCLE($,#192,1.1005);
#74=CIRCLE($,#194,0.25000000000248);
#75=CIRCLE($,#196,3.);
#76=CIRCLE($,#197,2.5);
#77=CIRCLE($,#199,2.25);
#78=CIRCLE($,#200,3.);
#79=VERTEX_POINT($,#264);
#80=VERTEX_POINT($,#266);
#81=VERTEX_POINT($,#270);
#82=VERTEX_POINT($,#271);
#83=VERTEX_POINT($,#273);
#84=VERTEX_POINT($,#275);
#85=VERTEX_POINT($,#279);
#86=VERTEX_POINT($,#281);
#87=VERTEX_POINT($,#285);
#88=VERTEX_POINT($,#289);
#89=VERTEX_POINT($,#295);
#90=VERTEX_POINT($,#297);
#91=VERTEX_POINT($,#300);
#92=VERTEX_POINT($,#302);
#93=EDGE_CURVE($,#79,#79,#65,.T.);
#94=EDGE_CURVE($,#80,#80,#66,.F.);
#95=EDGE_CURVE($,#81,#82,#67,.T.);
#96=EDGE_CURVE($,#82,#83,#68,.T.);
#97=EDGE_CURVE($,#83,#84,#69,.T.);
#98=EDGE_CURVE($,#84,#81,#70,.T.);
#99=EDGE_CURVE($,#84,#85,#12,.T.);
#100=EDGE_CURVE($,#85,#86,#71,.T.);
#101=EDGE_CURVE($,#81,#86,#13,.T.);
#102=EDGE_CURVE($,#87,#85,#72,.T.);
#103=EDGE_CURVE($,#83,#87,#14,.T.);
#104=EDGE_CURVE($,#82,#88,#15,.T.);
#105=EDGE_CURVE($,#88,#87,#73,.T.);
#106=EDGE_CURVE($,#86,#88,#74,.T.);
#107=EDGE_CURVE($,#89,#89,#75,.T.);
#108=EDGE_CURVE($,#90,#90,#76,.F.);
#109=EDGE_CURVE($,#91,#91,#77,.T.);
#110=EDGE_CURVE($,#92,#92,#78,.T.);
#111=ORIENTED_EDGE($,*,*,#93,.F.);
#112=ORIENTED_EDGE($,*,*,#94,.F.);
#113=ORIENTED_EDGE($,*,*,#94,.T.);
#114=ORIENTED_EDGE($,*,*,#95,.T.);
#115=ORIENTED_EDGE($,*,*,#96,.T.);
#116=ORIENTED_EDGE($,*,*,#97,.T.);
#117=ORIENTED_EDGE($,*,*,#98,.T.);
#118=ORIENTED_EDGE($,*,*,#99,.T.);
#119=ORIENTED_EDGE($,*,*,#100,.T.);
#120=ORIENTED_EDGE($,*,*,#101,.F.);
#121=ORIENTED_EDGE($,*,*,#98,.F.);
#122=ORIENTED_EDGE($,*,*,#102,.T.);
#123=ORIENTED_EDGE($,*,*,#99,.F.);
#124=ORIENTED_EDGE($,*,*,#97,.F.);
#125=ORIENTED_EDGE($,*,*,#103,.T.);
#126=ORIENTED_EDGE($,*,*,#104,.T.);
#127=ORIENTED_EDGE($,*,*,#105,.T.);
#128=ORIENTED_EDGE($,*,*,#103,.F.);
#129=ORIENTED_EDGE($,*,*,#96,.F.);
#130=ORIENTED_EDGE($,*,*,#106,.T.);
#131=ORIENTED_EDGE($,*,*,#104,.F.);
#132=ORIENTED_EDGE($,*,*,#95,.F.);
#133=ORIENTED_EDGE($,*,*,#101,.T.);
#134=ORIENTED_EDGE($,*,*,#107,.F.);
#135=ORIENTED_EDGE($,*,*,#108,.F.);
#136=ORIENTED_EDGE($,*,*,#109,.T.);
#137=ORIENTED_EDGE($,*,*,#110,.F.);
#138=ORIENTED_EDGE($,*,*,#108,.T.);
#139=ORIENTED_EDGE($,*,*,#100,.F.);
#140=ORIENTED_EDGE($,*,*,#102,.F.);
#141=ORIENTED_EDGE($,*,*,#105,.F.);
#142=ORIENTED_EDGE($,*,*,#106,.F.);
#143=ORIENTED_EDGE($,*,*,#107,.T.);
#144=ORIENTED_EDGE($,*,*,#110,.T.);
#145=ORIENTED_EDGE($,*,*,#93,.T.);
#146=ORIENTED_EDGE($,*,*,#109,.F.);
#147=CONICAL_SURFACE($,#178,2.25,0.523598775598299);
#148=CONICAL_SURFACE($,#195,2.5,0.785398163397448);
#149=CONICAL_SURFACE($,#198,3.,0.785398163397448);
#150=STYLED_ITEM($,(#323),#163);
#151=STYLED_ITEM($,(#323),#164);
#152=STYLED_ITEM($,(#323),#165);
#153=STYLED_ITEM($,(#323),#166);
#154=STYLED_ITEM($,(#323),#167);
#155=STYLED_ITEM($,(#323),#168);
#156=STYLED_ITEM($,(#323),#169);
#157=STYLED_ITEM($,(#323),#170);
#158=STYLED_ITEM($,(#323),#171);
#159=STYLED_ITEM($,(#323),#172);
#160=STYLED_ITEM($,(#323),#173);
#161=STYLED_ITEM($,(#323),#174);
#162=STYLED_ITEM($,(#322),#176);
#163=ADVANCED_FACE($,(#35,#29),#147,.T.);
#164=ADVANCED_FACE($,(#36),#26,.F.);
#165=ADVANCED_FACE($,(#37),#27,.F.);
#166=ADVANCED_FACE($,(#38),#20,.T.);
#167=ADVANCED_FACE($,(#39),#21,.F.);
#168=ADVANCED_FACE($,(#40),#22,.T.);
#169=ADVANCED_FACE($,(#41),#23,.F.);
#170=ADVANCED_FACE($,(#42,#30),#148,.T.);
#171=ADVANCED_FACE($,(#43,#31),#149,.T.);
#172=ADVANCED_FACE($,(#44,#32),#28,.F.);
#173=ADVANCED_FACE($,(#45,#33),#24,.T.);
#174=ADVANCED_FACE($,(#46,#34),#25,.T.);
#175=CLOSED_SHELL($,(#163,#164,#165,#166,#167,#168,#169,#170,#171,#172,
#173,#174));
#176=MANIFOLD_SOLID_BREP('LT208157_1',#175);
#177=AXIS2_PLACEMENT_3D('placement',#262,#204,#205);
#178=AXIS2_PLACEMENT_3D($,#263,#206,#207);
#179=AXIS2_PLACEMENT_3D($,#265,#208,#209);
#180=AXIS2_PLACEMENT_3D($,#267,#210,#211);
#181=AXIS2_PLACEMENT_3D($,#268,#212,#213);
#182=AXIS2_PLACEMENT_3D($,#269,#214,#215);
#183=AXIS2_PLACEMENT_3D($,#272,#216,#217);
#184=AXIS2_PLACEMENT_3D($,#274,#218,#219);
#185=AXIS2_PLACEMENT_3D($,#276,#220,#221);
#186=AXIS2_PLACEMENT_3D($,#277,#222,#223);
#187=AXIS2_PLACEMENT_3D($,#278,#224,#225);
#188=AXIS2_PLACEMENT_3D($,#282,#227,#228);
#189=AXIS2_PLACEMENT_3D($,#284,#230,#231);
#190=AXIS2_PLACEMENT_3D($,#286,#232,#233);
#191=AXIS2_PLACEMENT_3D($,#288,#235,#236);
#192=AXIS2_PLACEMENT_3D($,#291,#238,#239);
#193=AXIS2_PLACEMENT_3D($,#292,#240,#241);
#194=AXIS2_PLACEMENT_3D($,#293,#242,#243);
#195=AXIS2_PLACEMENT_3D($,#294,#244,#245);
#196=AXIS2_PLACEMENT_3D($,#296,#246,#247);
#197=AXIS2_PLACEMENT_3D($,#298,#248,#249);
#198=AXIS2_PLACEMENT_3D($,#299,#250,#251);
#199=AXIS2_PLACEMENT_3D($,#301,#252,#253);
#200=AXIS2_PLACEMENT_3D($,#303,#254,#255);
#201=AXIS2_PLACEMENT_3D($,#304,#256,#257);
#202=AXIS2_PLACEMENT_3D($,#305,#258,#259);
#203=AXIS2_PLACEMENT_3D($,#306,#260,#261);
#204=DIRECTION('axis',(0.,0.,1.));
#205=DIRECTION('refdir',(1.,0.,0.));
#206=DIRECTION('center_axis',(-1.,0.,0.));
#207=DIRECTION('ref_axis',(0.,0.,1.));
#208=DIRECTION('center_axis',(-1.,0.,0.));
#209=DIRECTION('ref_axis',(0.,0.,1.));
#210=DIRECTION('center_axis',(-1.,0.,0.));
#211=DIRECTION('ref_axis',(0.,0.,1.));
#212=DIRECTION('center_axis',(-1.,0.,0.));
#213=DIRECTION('ref_axis',(0.,0.,1.));
#214=DIRECTION('center_axis',(1.,-6.12303176911189E-017,0.));
#215=DIRECTION('ref_axis',(0.,1.,0.));
#216=DIRECTION('center_axis',(1.,-6.12303176911189E-017,0.));
#217=DIRECTION('ref_axis',(-6.12303176911189E-017,-1.,0.));
#218=DIRECTION('center_axis',(-1.,6.12303176911189E-017,0.));
#219=DIRECTION('ref_axis',(0.,0.,-1.));
#220=DIRECTION('center_axis',(1.,-6.12303176911189E-017,0.));
#221=DIRECTION('ref_axis',(6.12303176911189E-017,1.,0.));
#222=DIRECTION('center_axis',(-1.,6.12303176911189E-017,0.));
#223=DIRECTION('ref_axis',(0.,0.,1.));
#224=DIRECTION('center_axis',(-1.,0.,0.));
#225=DIRECTION('ref_axis',(0.,0.,-1.));
#226=DIRECTION($,(1.,0.,0.));
#227=DIRECTION('center_axis',(-1.,6.12303176911189E-017,0.));
#228=DIRECTION('ref_axis',(0.,0.,1.));
#229=DIRECTION($,(1.,0.,0.));
#230=DIRECTION('center_axis',(-1.,0.,0.));
#231=DIRECTION('ref_axis',(0.,0.,-1.));
#232=DIRECTION('center_axis',(1.,-6.12303176911189E-017,0.));
#233=DIRECTION('ref_axis',(6.12303176911189E-017,1.,0.));
#234=DIRECTION($,(1.,0.,0.));
#235=DIRECTION('center_axis',(-1.,0.,0.));
#236=DIRECTION('ref_axis',(0.,0.,-1.));
#237=DIRECTION($,(1.,0.,0.));
#238=DIRECTION('center_axis',(-1.,6.12303176911189E-017,0.));
#239=DIRECTION('ref_axis',(0.,0.,-1.));
#240=DIRECTION('center_axis',(-1.,0.,0.));
#241=DIRECTION('ref_axis',(0.,0.,-1.));
#242=DIRECTION('center_axis',(1.,-6.12303176911189E-017,0.));
#243=DIRECTION('ref_axis',(-6.12303176911189E-017,-1.,0.));
#244=DIRECTION('center_axis',(1.,0.,0.));
#245=DIRECTION('ref_axis',(0.,0.,-1.));
#246=DIRECTION('center_axis',(1.,0.,0.));
#247=DIRECTION('ref_axis',(0.,0.,-1.));
#248=DIRECTION('center_axis',(1.,0.,0.));
#249=DIRECTION('ref_axis',(0.,0.,-1.));
#250=DIRECTION('center_axis',(-1.,0.,0.));
#251=DIRECTION('ref_axis',(0.,0.,1.));
#252=DIRECTION('center_axis',(-1.,0.,0.));
#253=DIRECTION('ref_axis',(0.,0.,1.));
#254=DIRECTION('center_axis',(-1.,0.,0.));
#255=DIRECTION('ref_axis',(0.,0.,1.));
#256=DIRECTION('center_axis',(1.,0.,0.));
#257=DIRECTION('ref_axis',(0.,0.,-1.));
#258=DIRECTION('center_axis',(1.,0.,0.));
#259=DIRECTION('ref_axis',(0.,0.,1.));
#260=DIRECTION('center_axis',(1.,0.,0.));
#261=DIRECTION('ref_axis',(0.,0.,1.));
#262=CARTESIAN_POINT('',(0.,0.,0.));
#263=CARTESIAN_POINT('Origin',(-1.3,0.,0.));
#264=CARTESIAN_POINT('',(-1.3,0.,2.25));
#265=CARTESIAN_POINT('Origin',(-1.3,0.,0.));
#266=CARTESIAN_POINT('',(1.7347234759768E-015,0.,1.49944465005349));
#267=CARTESIAN_POINT('Origin',(1.7347234759768E-015,0.,0.));
#268=CARTESIAN_POINT('Origin',(1.65321857766021E-015,-40.2198955742056,
-13.5));
#269=CARTESIAN_POINT('Origin',(-29.,-0.391391747487954,0.55025));
#270=CARTESIAN_POINT('',(-29.,-0.63787725747457,-0.203720844133448));
#271=CARTESIAN_POINT('',(-29.,-0.637877257474569,0.203720844133452));
#272=CARTESIAN_POINT('Origin',(-29.,-0.782783494975908,1.95156391047391E-015));
#273=CARTESIAN_POINT('',(-29.,0.637877257474569,0.203720844133452));
#274=CARTESIAN_POINT('Origin',(-29.,0.,1.1005));
#275=CARTESIAN_POINT('',(-29.,0.637877257474569,-0.203720844133448));
#276=CARTESIAN_POINT('Origin',(-29.,0.782783494975908,1.95156391047391E-015));
#277=CARTESIAN_POINT('Origin',(-29.,0.,-1.1005));
#278=CARTESIAN_POINT('Origin',(-29.,0.,-1.1005));
#279=CARTESIAN_POINT('',(-24.,0.637877257474569,-0.203720844133448));
#280=CARTESIAN_POINT($,(-29.,0.637877257474569,-0.203720844133448));
#281=CARTESIAN_POINT('',(-24.,-0.63787725747457,-0.203720844133448));
#282=CARTESIAN_POINT('Origin',(-24.,0.,-1.1005));
#283=CARTESIAN_POINT($,(-29.,-0.63787725747457,-0.203720844133448));
#284=CARTESIAN_POINT('Origin',(-29.,0.782783494975908,1.95156391047391E-015));
#285=CARTESIAN_POINT('',(-24.,0.637877257474569,0.203720844133452));
#286=CARTESIAN_POINT('Origin',(-24.,0.782783494975908,1.95156391047391E-015));
#287=CARTESIAN_POINT($,(-29.,0.637877257474569,0.203720844133452));
#288=CARTESIAN_POINT('Origin',(-29.,0.,1.1005));
#289=CARTESIAN_POINT('',(-24.,-0.637877257474569,0.203720844133452));
#290=CARTESIAN_POINT($,(-29.,-0.637877257474569,0.203720844133452));
#291=CARTESIAN_POINT('Origin',(-24.,0.,1.1005));
#292=CARTESIAN_POINT('Origin',(-29.,-0.782783494975908,1.95156391047391E-015));
#293=CARTESIAN_POINT('Origin',(-24.,-0.782783494975908,1.95156391047391E-015));
#294=CARTESIAN_POINT('Origin',(-24.,0.,0.));
#295=CARTESIAN_POINT('',(-23.5,0.,-3.));
#296=CARTESIAN_POINT('Origin',(-23.5,0.,0.));
#297=CARTESIAN_POINT('',(-24.,0.,-2.5));
#298=CARTESIAN_POINT('Origin',(-24.,0.,0.));
#299=CARTESIAN_POINT('Origin',(-4.75,0.,0.));
#300=CARTESIAN_POINT('',(-4.,0.,2.25));
#301=CARTESIAN_POINT('Origin',(-4.,0.,0.));
#302=CARTESIAN_POINT('',(-4.75,0.,3.));
#303=CARTESIAN_POINT('Origin',(-4.75,0.,0.));
#304=CARTESIAN_POINT('Origin',(-24.,0.,3.));
#305=CARTESIAN_POINT('Origin',(-4.52520286396181,0.,0.));
#306=CARTESIAN_POINT('Origin',(-4.52520286396181,0.,0.));
#307=UNCERTAINTY_MEASURE_WITH_UNIT(LENGTH_MEASURE(0.01),#309,
'DISTANCE_ACCURACY_VALUE',
'Maximum model space distance between geometric entities at asserted c
onnectivities');
#308=(
GEOMETRIC_REPRESENTATION_CONTEXT(3)
GLOBAL_UNCERTAINTY_ASSIGNED_CONTEXT((#307))
GLOBAL_UNIT_ASSIGNED_CONTEXT((#309,#311,#310))
REPRESENTATION_CONTEXT('','3D')
);
#309=(
LENGTH_UNIT()
NAMED_UNIT(*)
SI_UNIT(.MILLI.,.METRE.)
);
#310=(
NAMED_UNIT(*)
SI_UNIT($,.STERADIAN.)
SOLID_ANGLE_UNIT()
);
#311=(
NAMED_UNIT(*)
PLANE_ANGLE_UNIT()
SI_UNIT($,.RADIAN.)
);
#312=SHAPE_DEFINITION_REPRESENTATION(#313,#314);
#313=PRODUCT_DEFINITION_SHAPE('',$,#316);
#314=SHAPE_REPRESENTATION('',(#177),#308);
#315=PRODUCT_DEFINITION_CONTEXT('3D Mechanical Parts',#319,'design');
#316=PRODUCT_DEFINITION('LT208157','LT208157',#317,#315);
#317=PRODUCT_DEFINITION_FORMATION('',$,#321);
#318=APPLICATION_PROTOCOL_DEFINITION('international standard',
'automotive_design',2009,#319);
#319=APPLICATION_CONTEXT(
'Core Data for Automotive Mechanical Design Process');
#320=PRODUCT_CONTEXT('3D Mechanical Parts',#319,'mechanical');
#321=PRODUCT('LT208157','LT208157',$,(#320));
#322=PRESENTATION_STYLE_ASSIGNMENT((#324));
#323=PRESENTATION_STYLE_ASSIGNMENT((#325));
#324=SURFACE_STYLE_USAGE(.BOTH.,#326);
#325=SURFACE_STYLE_USAGE(.BOTH.,#327);
#326=SURFACE_SIDE_STYLE($,(#328));
#327=SURFACE_SIDE_STYLE($,(#329));
#328=SURFACE_STYLE_FILL_AREA(#330);
#329=SURFACE_STYLE_FILL_AREA(#331);
#330=FILL_AREA_STYLE($,(#332));
#331=FILL_AREA_STYLE($,(#333));
#332=FILL_AREA_STYLE_COLOUR($,#334);
#333=FILL_AREA_STYLE_COLOUR($,#335);
#334=COLOUR_RGB('',0.749019607843137,0.749019607843137,0.749019607843137);
#335=COLOUR_RGB('',0.411764705882353,0.411764705882353,0.411764705882353);
ENDSEC;
END-ISO-10303-21;
