ISO-10303-21;
HEADER;
/* Generated by software containing ST-Developer
 * from STEP Tools, Inc. (www.steptools.com) 
 */

FILE_DESCRIPTION(
/* description */ (''),
/* implementation_level */ '2;1');

FILE_NAME(
/* name */ 
'C:\\Users\\mitarbeiter\\Desktop\\3D\\Imported Components\\OS106170\\O
S106170.stp',
/* time_stamp */ '2016-10-10T09:24:42+02:00',
/* author */ ('mitarbeiter'),
/* organization */ (''),
/* preprocessor_version */ 'ST-DEVELOPER v15.2',
/* originating_system */ 'Autodesk Inventor 2014',
/* authorisation */ '');

FILE_SCHEMA (('AUTOMOTIVE_DESIGN { 1 0 10303 214 3 1 1 }'));
ENDSEC;

DATA;
#10=ITEM_DEFINED_TRANSFORMATION($,$,#142,#167);
#11=ITEM_DEFINED_TRANSFORMATION($,$,#152,#168);
#12=(
REPRESENTATION_RELATIONSHIP($,$,#280,#282)
REPRESENTATION_RELATIONSHIP_WITH_TRANSFORMATION(#10)
SHAPE_REPRESENTATION_RELATIONSHIP()
);
#13=(
REPRESENTATION_RELATIONSHIP($,$,#281,#282)
REPRESENTATION_RELATIONSHIP_WITH_TRANSFORMATION(#11)
SHAPE_REPRESENTATION_RELATIONSHIP()
);
#14=CONTEXT_DEPENDENT_SHAPE_REPRESENTATION(#12,#278);
#15=CONTEXT_DEPENDENT_SHAPE_REPRESENTATION(#13,#279);
#16=NEXT_ASSEMBLY_USAGE_OCCURRENCE('Geh\X\E4use_OS106070:1',$,$,#286,#284,
$);
#17=NEXT_ASSEMBLY_USAGE_OCCURRENCE('Anschlu\X\DF_OS106070:1',$,$,#286,#285,
$);
#18=CONICAL_SURFACE($,#153,3.625,45.0000000000001);
#19=CONICAL_SURFACE($,#158,3.625,44.9999999999999);
#20=SHAPE_REPRESENTATION_RELATIONSHIP('SRR','None',#280,#22);
#21=SHAPE_REPRESENTATION_RELATIONSHIP('SRR','None',#281,#23);
#22=ADVANCED_BREP_SHAPE_REPRESENTATION($,(#140),#263);
#23=ADVANCED_BREP_SHAPE_REPRESENTATION($,(#141),#264);
#24=STYLED_ITEM($,(#297),#140);
#25=STYLED_ITEM($,(#297),#141);
#26=SPHERICAL_SURFACE($,#149,7.32744636727185);
#27=PLANE($,#146);
#28=PLANE($,#147);
#29=PLANE($,#164);
#30=PLANE($,#165);
#31=FACE_BOUND($,#52,.T.);
#32=FACE_BOUND($,#55,.T.);
#33=FACE_BOUND($,#58,.T.);
#34=FACE_BOUND($,#60,.T.);
#35=FACE_BOUND($,#62,.T.);
#36=FACE_BOUND($,#64,.T.);
#37=FACE_BOUND($,#66,.T.);
#38=FACE_BOUND($,#68,.T.);
#39=FACE_OUTER_BOUND($,#51,.T.);
#40=FACE_OUTER_BOUND($,#53,.T.);
#41=FACE_OUTER_BOUND($,#54,.T.);
#42=FACE_OUTER_BOUND($,#56,.T.);
#43=FACE_OUTER_BOUND($,#57,.T.);
#44=FACE_OUTER_BOUND($,#59,.T.);
#45=FACE_OUTER_BOUND($,#61,.T.);
#46=FACE_OUTER_BOUND($,#63,.T.);
#47=FACE_OUTER_BOUND($,#65,.T.);
#48=FACE_OUTER_BOUND($,#67,.T.);
#49=FACE_OUTER_BOUND($,#69,.T.);
#50=FACE_OUTER_BOUND($,#70,.T.);
#51=EDGE_LOOP($,(#101));
#52=EDGE_LOOP($,(#102));
#53=EDGE_LOOP($,(#103));
#54=EDGE_LOOP($,(#104));
#55=EDGE_LOOP($,(#105));
#56=EDGE_LOOP($,(#106));
#57=EDGE_LOOP($,(#107));
#58=EDGE_LOOP($,(#108));
#59=EDGE_LOOP($,(#109));
#60=EDGE_LOOP($,(#110));
#61=EDGE_LOOP($,(#111));
#62=EDGE_LOOP($,(#112));
#63=EDGE_LOOP($,(#113));
#64=EDGE_LOOP($,(#114));
#65=EDGE_LOOP($,(#115));
#66=EDGE_LOOP($,(#116));
#67=EDGE_LOOP($,(#117));
#68=EDGE_LOOP($,(#118));
#69=EDGE_LOOP($,(#119));
#70=EDGE_LOOP($,(#120));
#71=CIRCLE($,#144,3.125);
#72=CIRCLE($,#145,3.125);
#73=CIRCLE($,#148,5.);
#74=CIRCLE($,#150,5.);
#75=CIRCLE($,#154,3.25);
#76=CIRCLE($,#155,4.);
#77=CIRCLE($,#157,4.);
#78=CIRCLE($,#159,3.25000000000001);
#79=CIRCLE($,#161,3.25);
#80=CIRCLE($,#163,3.25000000000001);
#81=VERTEX_POINT($,#225);
#82=VERTEX_POINT($,#227);
#83=VERTEX_POINT($,#231);
#84=VERTEX_POINT($,#234);
#85=VERTEX_POINT($,#239);
#86=VERTEX_POINT($,#241);
#87=VERTEX_POINT($,#244);
#88=VERTEX_POINT($,#247);
#89=VERTEX_POINT($,#250);
#90=VERTEX_POINT($,#253);
#91=EDGE_CURVE($,#81,#81,#71,.T.);
#92=EDGE_CURVE($,#82,#82,#72,.T.);
#93=EDGE_CURVE($,#83,#83,#73,.T.);
#94=EDGE_CURVE($,#84,#84,#74,.T.);
#95=EDGE_CURVE($,#85,#85,#75,.T.);
#96=EDGE_CURVE($,#86,#86,#76,.T.);
#97=EDGE_CURVE($,#87,#87,#77,.T.);
#98=EDGE_CURVE($,#88,#88,#78,.T.);
#99=EDGE_CURVE($,#89,#89,#79,.T.);
#100=EDGE_CURVE($,#90,#90,#80,.T.);
#101=ORIENTED_EDGE($,*,*,#91,.F.);
#102=ORIENTED_EDGE($,*,*,#92,.F.);
#103=ORIENTED_EDGE($,*,*,#92,.T.);
#104=ORIENTED_EDGE($,*,*,#93,.T.);
#105=ORIENTED_EDGE($,*,*,#91,.T.);
#106=ORIENTED_EDGE($,*,*,#94,.F.);
#107=ORIENTED_EDGE($,*,*,#93,.F.);
#108=ORIENTED_EDGE($,*,*,#94,.T.);
#109=ORIENTED_EDGE($,*,*,#95,.T.);
#110=ORIENTED_EDGE($,*,*,#96,.T.);
#111=ORIENTED_EDGE($,*,*,#97,.F.);
#112=ORIENTED_EDGE($,*,*,#96,.F.);
#113=ORIENTED_EDGE($,*,*,#97,.T.);
#114=ORIENTED_EDGE($,*,*,#98,.F.);
#115=ORIENTED_EDGE($,*,*,#95,.F.);
#116=ORIENTED_EDGE($,*,*,#99,.T.);
#117=ORIENTED_EDGE($,*,*,#100,.F.);
#118=ORIENTED_EDGE($,*,*,#98,.T.);
#119=ORIENTED_EDGE($,*,*,#100,.T.);
#120=ORIENTED_EDGE($,*,*,#99,.F.);
#121=CYLINDRICAL_SURFACE($,#143,3.125);
#122=CYLINDRICAL_SURFACE($,#151,5.);
#123=CYLINDRICAL_SURFACE($,#156,4.);
#124=CYLINDRICAL_SURFACE($,#160,3.25);
#125=CYLINDRICAL_SURFACE($,#162,3.25000000000001);
#126=ADVANCED_FACE($,(#39,#31),#121,.F.);
#127=ADVANCED_FACE($,(#40),#27,.F.);
#128=ADVANCED_FACE($,(#41,#32),#28,.T.);
#129=ADVANCED_FACE($,(#42),#26,.T.);
#130=ADVANCED_FACE($,(#43,#33),#122,.T.);
#131=ADVANCED_FACE($,(#44,#34),#18,.T.);
#132=ADVANCED_FACE($,(#45,#35),#123,.T.);
#133=ADVANCED_FACE($,(#46,#36),#19,.T.);
#134=ADVANCED_FACE($,(#47,#37),#124,.T.);
#135=ADVANCED_FACE($,(#48,#38),#125,.T.);
#136=ADVANCED_FACE($,(#49),#29,.T.);
#137=ADVANCED_FACE($,(#50),#30,.T.);
#138=CLOSED_SHELL($,(#126,#127,#128,#129,#130));
#139=CLOSED_SHELL($,(#131,#132,#133,#134,#135,#136,#137));
#140=MANIFOLD_SOLID_BREP('Volumenk\X\F6rper1',#138);
#141=MANIFOLD_SOLID_BREP('Volumenk\X\F6rper1',#139);
#142=AXIS2_PLACEMENT_3D('placement',#223,#169,#170);
#143=AXIS2_PLACEMENT_3D($,#224,#171,#172);
#144=AXIS2_PLACEMENT_3D($,#226,#173,#174);
#145=AXIS2_PLACEMENT_3D($,#228,#175,#176);
#146=AXIS2_PLACEMENT_3D($,#229,#177,#178);
#147=AXIS2_PLACEMENT_3D($,#230,#179,#180);
#148=AXIS2_PLACEMENT_3D($,#232,#181,#182);
#149=AXIS2_PLACEMENT_3D($,#233,#183,#184);
#150=AXIS2_PLACEMENT_3D($,#235,#185,#186);
#151=AXIS2_PLACEMENT_3D($,#236,#187,#188);
#152=AXIS2_PLACEMENT_3D('placement',#237,#189,#190);
#153=AXIS2_PLACEMENT_3D($,#238,#191,#192);
#154=AXIS2_PLACEMENT_3D($,#240,#193,#194);
#155=AXIS2_PLACEMENT_3D($,#242,#195,#196);
#156=AXIS2_PLACEMENT_3D($,#243,#197,#198);
#157=AXIS2_PLACEMENT_3D($,#245,#199,#200);
#158=AXIS2_PLACEMENT_3D($,#246,#201,#202);
#159=AXIS2_PLACEMENT_3D($,#248,#203,#204);
#160=AXIS2_PLACEMENT_3D($,#249,#205,#206);
#161=AXIS2_PLACEMENT_3D($,#251,#207,#208);
#162=AXIS2_PLACEMENT_3D($,#252,#209,#210);
#163=AXIS2_PLACEMENT_3D($,#254,#211,#212);
#164=AXIS2_PLACEMENT_3D($,#255,#213,#214);
#165=AXIS2_PLACEMENT_3D($,#256,#215,#216);
#166=AXIS2_PLACEMENT_3D('placement',#257,#217,#218);
#167=AXIS2_PLACEMENT_3D($,#258,#219,#220);
#168=AXIS2_PLACEMENT_3D($,#259,#221,#222);
#169=DIRECTION('axis',(0.,0.,1.));
#170=DIRECTION('refdir',(1.,0.,0.));
#171=DIRECTION('center_axis',(0.,-1.,0.));
#172=DIRECTION('ref_axis',(-1.,0.,-5.02429586778808E-016));
#173=DIRECTION('center_axis',(0.,1.,0.));
#174=DIRECTION('ref_axis',(1.,0.,0.));
#175=DIRECTION('center_axis',(0.,-1.,0.));
#176=DIRECTION('ref_axis',(1.,0.,0.));
#177=DIRECTION('center_axis',(0.,1.,0.));
#178=DIRECTION('ref_axis',(0.,0.,1.));
#179=DIRECTION('center_axis',(0.,-1.,0.));
#180=DIRECTION('ref_axis',(0.,0.,-1.));
#181=DIRECTION('center_axis',(0.,-1.,0.));
#182=DIRECTION('ref_axis',(1.,0.,0.));
#183=DIRECTION('center_axis',(0.,0.,1.));
#184=DIRECTION('ref_axis',(1.,0.,0.));
#185=DIRECTION('center_axis',(0.,-1.,0.));
#186=DIRECTION('ref_axis',(1.,0.,0.));
#187=DIRECTION('center_axis',(2.467162E-016,-1.,0.));
#188=DIRECTION('ref_axis',(1.,2.467162E-016,0.));
#189=DIRECTION('axis',(0.,0.,1.));
#190=DIRECTION('refdir',(1.,0.,0.));
#191=DIRECTION('center_axis',(-4.542751E-016,-1.,0.));
#192=DIRECTION('ref_axis',(-1.,4.542751E-016,0.));
#193=DIRECTION('center_axis',(0.,-1.,0.));
#194=DIRECTION('ref_axis',(1.,0.,0.));
#195=DIRECTION('center_axis',(0.,1.,0.));
#196=DIRECTION('ref_axis',(-1.,0.,0.));
#197=DIRECTION('center_axis',(-4.542751E-016,-1.,0.));
#198=DIRECTION('ref_axis',(1.,-4.542751E-016,0.));
#199=DIRECTION('center_axis',(0.,-1.,0.));
#200=DIRECTION('ref_axis',(-1.,0.,0.));
#201=DIRECTION('center_axis',(4.542751E-016,1.,0.));
#202=DIRECTION('ref_axis',(-1.,4.542751E-016,0.));
#203=DIRECTION('center_axis',(0.,-1.,0.));
#204=DIRECTION('ref_axis',(1.,0.,0.));
#205=DIRECTION('center_axis',(-4.542751E-016,-1.,0.));
#206=DIRECTION('ref_axis',(1.,-4.542751E-016,0.));
#207=DIRECTION('center_axis',(0.,-1.,0.));
#208=DIRECTION('ref_axis',(1.,0.,0.));
#209=DIRECTION('center_axis',(-4.542751E-016,-1.,0.));
#210=DIRECTION('ref_axis',(1.,-4.542751E-016,0.));
#211=DIRECTION('center_axis',(0.,-1.,0.));
#212=DIRECTION('ref_axis',(1.,0.,0.));
#213=DIRECTION('center_axis',(0.,-1.,0.));
#214=DIRECTION('ref_axis',(0.,0.,-1.));
#215=DIRECTION('center_axis',(0.,1.,0.));
#216=DIRECTION('ref_axis',(0.,0.,1.));
#217=DIRECTION('axis',(0.,0.,1.));
#218=DIRECTION('refdir',(1.,0.,0.));
#219=DIRECTION($,(0.,0.,1.));
#220=DIRECTION($,(1.,0.,0.));
#221=DIRECTION($,(0.,0.,-1.));
#222=DIRECTION($,(1.,4.934325E-016,0.));
#223=CARTESIAN_POINT('',(0.,0.,0.));
#224=CARTESIAN_POINT('Origin',(-16.4705860614777,-24.7754958610454,1.18740295868377E-015));
#225=CARTESIAN_POINT('',(-13.3455860614777,-25.0254958610454,0.));
#226=CARTESIAN_POINT('Origin',(-16.4705860614777,-25.0254958610454,0.));
#227=CARTESIAN_POINT('',(-13.3455860614777,-24.5254958610454,0.));
#228=CARTESIAN_POINT('Origin',(-16.4705860614777,-24.5254958610454,0.));
#229=CARTESIAN_POINT('Origin',(-16.4705860614777,-24.5254958610454,3.125));
#230=CARTESIAN_POINT('Origin',(-13.9705860614777,-25.0254958610454,0.));
#231=CARTESIAN_POINT('',(-11.4705860614777,-25.0254958610454,0.));
#232=CARTESIAN_POINT('Origin',(-16.4705860614777,-25.0254958610454,0.));
#233=CARTESIAN_POINT('Origin',(-16.4705860614777,12.6470577716827,0.));
#234=CARTESIAN_POINT('',(-11.4705860614777,18.0034997124906,0.));
#235=CARTESIAN_POINT('Origin',(-16.4705860614777,18.0034997124906,0.));
#236=CARTESIAN_POINT('Origin',(-16.4705860614777,-3.51099807427742,0.));
#237=CARTESIAN_POINT('',(0.,0.,0.));
#238=CARTESIAN_POINT('Origin',(2.555298E-015,-6.375,0.));
#239=CARTESIAN_POINT('',(3.25,-6.,0.));
#240=CARTESIAN_POINT('Origin',(2.725651E-015,-6.,0.));
#241=CARTESIAN_POINT('',(4.,-6.75,-4.898425E-016));
#242=CARTESIAN_POINT('Origin',(2.384944E-015,-6.75,0.));
#243=CARTESIAN_POINT('Origin',(1.589963E-015,-8.5,0.));
#244=CARTESIAN_POINT('',(4.,-10.25,4.898425E-016));
#245=CARTESIAN_POINT('Origin',(7.949815E-016,-10.25,0.));
#246=CARTESIAN_POINT('Origin',(6.246283E-016,-10.625,0.));
#247=CARTESIAN_POINT('',(3.25000000000001,-11.,0.));
#248=CARTESIAN_POINT('Origin',(4.542751E-016,-11.,0.));
#249=CARTESIAN_POINT('Origin',(3.02093E-015,-5.35,0.));
#250=CARTESIAN_POINT('',(3.25,-4.7,0.));
#251=CARTESIAN_POINT('Origin',(3.316209E-015,-4.7,0.));
#252=CARTESIAN_POINT('Origin',(2.271376E-016,-11.5,0.));
#253=CARTESIAN_POINT('',(3.25000000000001,-12.,0.));
#254=CARTESIAN_POINT('Origin',(2.46519E-030,-12.,0.));
#255=CARTESIAN_POINT('Origin',(1.625,-12.,0.));
#256=CARTESIAN_POINT('Origin',(1.625,-4.7,0.));
#257=CARTESIAN_POINT('',(0.,0.,0.));
#258=CARTESIAN_POINT($,(0.,0.,0.));
#259=CARTESIAN_POINT($,(-16.4705860614777,-36.5254958610454,0.));
#260=UNCERTAINTY_MEASURE_WITH_UNIT(LENGTH_MEASURE(0.01),#266,
'DISTANCE_ACCURACY_VALUE',
'Maximum model space distance between geometric entities at asserted c
onnectivities');
#261=UNCERTAINTY_MEASURE_WITH_UNIT(LENGTH_MEASURE(0.01),#266,
'DISTANCE_ACCURACY_VALUE',
'Maximum model space distance between geometric entities at asserted c
onnectivities');
#262=UNCERTAINTY_MEASURE_WITH_UNIT(LENGTH_MEASURE(0.01),#266,
'DISTANCE_ACCURACY_VALUE',
'Maximum model space distance between geometric entities at asserted c
onnectivities');
#263=(
GEOMETRIC_REPRESENTATION_CONTEXT(3)
GLOBAL_UNCERTAINTY_ASSIGNED_CONTEXT((#260))
GLOBAL_UNIT_ASSIGNED_CONTEXT((#266,#269,#267))
REPRESENTATION_CONTEXT('','3D')
);
#264=(
GEOMETRIC_REPRESENTATION_CONTEXT(3)
GLOBAL_UNCERTAINTY_ASSIGNED_CONTEXT((#261))
GLOBAL_UNIT_ASSIGNED_CONTEXT((#266,#269,#267))
REPRESENTATION_CONTEXT('','3D')
);
#265=(
GEOMETRIC_REPRESENTATION_CONTEXT(3)
GLOBAL_UNCERTAINTY_ASSIGNED_CONTEXT((#262))
GLOBAL_UNIT_ASSIGNED_CONTEXT((#266,#269,#267))
REPRESENTATION_CONTEXT('','3D')
);
#266=(
LENGTH_UNIT()
NAMED_UNIT(*)
SI_UNIT(.MILLI.,.METRE.)
);
#267=(
NAMED_UNIT(*)
SI_UNIT($,.STERADIAN.)
SOLID_ANGLE_UNIT()
);
#268=DIMENSIONAL_EXPONENTS(0.,0.,0.,0.,0.,0.,0.);
#269=(
CONVERSION_BASED_UNIT('degree',#271)
NAMED_UNIT(#268)
PLANE_ANGLE_UNIT()
);
#270=(
NAMED_UNIT(*)
PLANE_ANGLE_UNIT()
SI_UNIT($,.RADIAN.)
);
#271=PLANE_ANGLE_MEASURE_WITH_UNIT(PLANE_ANGLE_MEASURE(0.01745329252),#270);
#272=SHAPE_DEFINITION_REPRESENTATION(#275,#280);
#273=SHAPE_DEFINITION_REPRESENTATION(#276,#281);
#274=SHAPE_DEFINITION_REPRESENTATION(#277,#282);
#275=PRODUCT_DEFINITION_SHAPE('',$,#284);
#276=PRODUCT_DEFINITION_SHAPE('',$,#285);
#277=PRODUCT_DEFINITION_SHAPE('',$,#286);
#278=PRODUCT_DEFINITION_SHAPE($,$,#16);
#279=PRODUCT_DEFINITION_SHAPE($,$,#17);
#280=SHAPE_REPRESENTATION('',(#142),#263);
#281=SHAPE_REPRESENTATION('',(#152),#264);
#282=SHAPE_REPRESENTATION('',(#166,#167,#168),#265);
#283=PRODUCT_DEFINITION_CONTEXT('3D Mechanical Parts',#291,'design');
#284=PRODUCT_DEFINITION('Geh\X\E4use_OS106070','Geh\X\E4use_OS106070',#287,
#283);
#285=PRODUCT_DEFINITION('Anschlu\X\DF_OS106070','Anschlu\X\DF_OS106070',
#288,#283);
#286=PRODUCT_DEFINITION('OS106170','OS106170',#289,#283);
#287=PRODUCT_DEFINITION_FORMATION('',$,#293);
#288=PRODUCT_DEFINITION_FORMATION('',$,#294);
#289=PRODUCT_DEFINITION_FORMATION('',$,#295);
#290=APPLICATION_PROTOCOL_DEFINITION('international standard',
'automotive_design',2009,#291);
#291=APPLICATION_CONTEXT(
'Core Data for Automotive Mechanical Design Process');
#292=PRODUCT_CONTEXT('3D Mechanical Parts',#291,'mechanical');
#293=PRODUCT('Geh\X\E4use_OS106070','Geh\X\E4use_OS106070',$,(#292));
#294=PRODUCT('Anschlu\X\DF_OS106070','Anschlu\X\DF_OS106070',$,(#292));
#295=PRODUCT('OS106170','OS106170',$,(#292));
#296=PRESENTATION_STYLE_ASSIGNMENT((#298));
#297=PRESENTATION_STYLE_ASSIGNMENT((#299));
#298=SURFACE_STYLE_USAGE(.BOTH.,#300);
#299=SURFACE_STYLE_USAGE(.BOTH.,#301);
#300=SURFACE_SIDE_STYLE($,(#302));
#301=SURFACE_SIDE_STYLE($,(#303));
#302=SURFACE_STYLE_FILL_AREA(#304);
#303=SURFACE_STYLE_FILL_AREA(#305);
#304=FILL_AREA_STYLE($,(#306));
#305=FILL_AREA_STYLE($,(#307));
#306=FILL_AREA_STYLE_COLOUR($,#308);
#307=FILL_AREA_STYLE_COLOUR($,#309);
#308=COLOUR_RGB('',0.749019607843137,0.749019607843137,0.749019607843137);
#309=COLOUR_RGB('',0.752941176470588,0.752941176470588,0.752941176470588);
ENDSEC;
END-ISO-10303-21;
