ISO-10303-21;
HEADER;
/* Generated by software containing ST-Developer
 * from STEP Tools, Inc. (www.steptools.com) 
 */

FILE_DESCRIPTION(
/* description */ (''),
/* implementation_level */ '2;1');

FILE_NAME(
/* name */ 
'C:\\Users\\mitarbeiter\\Desktop\\3D\\Imported Components\\LT208955\\L
T208955.stp',
/* time_stamp */ '2016-10-06T14:35:51+02:00',
/* author */ ('mitarbeiter'),
/* organization */ (''),
/* preprocessor_version */ 'ST-DEVELOPER v15.2',
/* originating_system */ 'Autodesk Inventor 2014',
/* authorisation */ '');

FILE_SCHEMA (('AUTOMOTIVE_DESIGN { 1 0 10303 214 3 1 1 }'));
ENDSEC;

DATA;
#10=SHAPE_REPRESENTATION_RELATIONSHIP('SRR','None',#322,#11);
#11=ADVANCED_BREP_SHAPE_REPRESENTATION($,(#175),#316);
#12=STYLED_ITEM($,(#330),#175);
#13=LINE($,#286,#17);
#14=LINE($,#289,#18);
#15=LINE($,#292,#19);
#16=LINE($,#303,#20);
#17=VECTOR($,#227,5.);
#18=VECTOR($,#230,5.);
#19=VECTOR($,#233,5.);
#20=VECTOR($,#250,5.);
#21=CYLINDRICAL_SURFACE($,#186,0.25000000000248);
#22=CYLINDRICAL_SURFACE($,#188,0.5);
#23=CYLINDRICAL_SURFACE($,#190,1.5);
#24=CYLINDRICAL_SURFACE($,#196,0.5);
#25=CYLINDRICAL_SURFACE($,#197,0.25000000000248);
#26=CYLINDRICAL_SURFACE($,#198,1.4);
#27=CYLINDRICAL_SURFACE($,#202,2.);
#28=PLANE($,#180);
#29=PLANE($,#192);
#30=PLANE($,#193);
#31=FACE_BOUND($,#52,.T.);
#32=FACE_BOUND($,#54,.T.);
#33=FACE_BOUND($,#58,.T.);
#34=FACE_BOUND($,#64,.T.);
#35=FACE_BOUND($,#66,.T.);
#36=FACE_BOUND($,#68,.T.);
#37=FACE_BOUND($,#70,.T.);
#38=FACE_OUTER_BOUND($,#51,.T.);
#39=FACE_OUTER_BOUND($,#53,.T.);
#40=FACE_OUTER_BOUND($,#55,.T.);
#41=FACE_OUTER_BOUND($,#56,.T.);
#42=FACE_OUTER_BOUND($,#57,.T.);
#43=FACE_OUTER_BOUND($,#59,.T.);
#44=FACE_OUTER_BOUND($,#60,.T.);
#45=FACE_OUTER_BOUND($,#61,.T.);
#46=FACE_OUTER_BOUND($,#62,.T.);
#47=FACE_OUTER_BOUND($,#63,.T.);
#48=FACE_OUTER_BOUND($,#65,.T.);
#49=FACE_OUTER_BOUND($,#67,.T.);
#50=FACE_OUTER_BOUND($,#69,.T.);
#51=EDGE_LOOP($,(#120));
#52=EDGE_LOOP($,(#121));
#53=EDGE_LOOP($,(#122));
#54=EDGE_LOOP($,(#123,#124,#125,#126));
#55=EDGE_LOOP($,(#127,#128,#129,#130));
#56=EDGE_LOOP($,(#131,#132,#133,#134));
#57=EDGE_LOOP($,(#135));
#58=EDGE_LOOP($,(#136));
#59=EDGE_LOOP($,(#137));
#60=EDGE_LOOP($,(#138,#139,#140,#141));
#61=EDGE_LOOP($,(#142,#143,#144,#145));
#62=EDGE_LOOP($,(#146,#147,#148,#149));
#63=EDGE_LOOP($,(#150));
#64=EDGE_LOOP($,(#151));
#65=EDGE_LOOP($,(#152));
#66=EDGE_LOOP($,(#153));
#67=EDGE_LOOP($,(#154));
#68=EDGE_LOOP($,(#155));
#69=EDGE_LOOP($,(#156));
#70=EDGE_LOOP($,(#157));
#71=CIRCLE($,#178,1.5);
#72=CIRCLE($,#179,0.749444650053487);
#73=CIRCLE($,#181,1.4);
#74=CIRCLE($,#182,0.25000000000248);
#75=CIRCLE($,#183,0.5);
#76=CIRCLE($,#184,0.25000000000248);
#77=CIRCLE($,#185,0.5);
#78=CIRCLE($,#187,0.25000000000248);
#79=CIRCLE($,#189,0.5);
#80=CIRCLE($,#191,1.5);
#81=CIRCLE($,#194,0.25000000000248);
#82=CIRCLE($,#195,0.5);
#83=CIRCLE($,#199,1.4);
#84=CIRCLE($,#201,2.);
#85=CIRCLE($,#203,2.);
#86=VERTEX_POINT($,#269);
#87=VERTEX_POINT($,#271);
#88=VERTEX_POINT($,#274);
#89=VERTEX_POINT($,#276);
#90=VERTEX_POINT($,#277);
#91=VERTEX_POINT($,#279);
#92=VERTEX_POINT($,#281);
#93=VERTEX_POINT($,#285);
#94=VERTEX_POINT($,#287);
#95=VERTEX_POINT($,#291);
#96=VERTEX_POINT($,#295);
#97=VERTEX_POINT($,#299);
#98=VERTEX_POINT($,#306);
#99=VERTEX_POINT($,#309);
#100=VERTEX_POINT($,#312);
#101=EDGE_CURVE($,#86,#86,#71,.T.);
#102=EDGE_CURVE($,#87,#87,#72,.T.);
#103=EDGE_CURVE($,#88,#88,#73,.T.);
#104=EDGE_CURVE($,#89,#90,#74,.T.);
#105=EDGE_CURVE($,#91,#89,#75,.T.);
#106=EDGE_CURVE($,#92,#91,#76,.T.);
#107=EDGE_CURVE($,#90,#92,#77,.T.);
#108=EDGE_CURVE($,#93,#90,#13,.T.);
#109=EDGE_CURVE($,#94,#93,#78,.T.);
#110=EDGE_CURVE($,#94,#89,#14,.T.);
#111=EDGE_CURVE($,#95,#92,#15,.T.);
#112=EDGE_CURVE($,#93,#95,#79,.T.);
#113=EDGE_CURVE($,#96,#96,#80,.T.);
#114=EDGE_CURVE($,#95,#97,#81,.T.);
#115=EDGE_CURVE($,#97,#94,#82,.T.);
#116=EDGE_CURVE($,#97,#91,#16,.T.);
#117=EDGE_CURVE($,#98,#98,#83,.T.);
#118=EDGE_CURVE($,#99,#99,#84,.T.);
#119=EDGE_CURVE($,#100,#100,#85,.T.);
#120=ORIENTED_EDGE($,*,*,#101,.F.);
#121=ORIENTED_EDGE($,*,*,#102,.F.);
#122=ORIENTED_EDGE($,*,*,#103,.T.);
#123=ORIENTED_EDGE($,*,*,#104,.F.);
#124=ORIENTED_EDGE($,*,*,#105,.F.);
#125=ORIENTED_EDGE($,*,*,#106,.F.);
#126=ORIENTED_EDGE($,*,*,#107,.F.);
#127=ORIENTED_EDGE($,*,*,#104,.T.);
#128=ORIENTED_EDGE($,*,*,#108,.F.);
#129=ORIENTED_EDGE($,*,*,#109,.F.);
#130=ORIENTED_EDGE($,*,*,#110,.T.);
#131=ORIENTED_EDGE($,*,*,#107,.T.);
#132=ORIENTED_EDGE($,*,*,#111,.F.);
#133=ORIENTED_EDGE($,*,*,#112,.F.);
#134=ORIENTED_EDGE($,*,*,#108,.T.);
#135=ORIENTED_EDGE($,*,*,#113,.F.);
#136=ORIENTED_EDGE($,*,*,#101,.T.);
#137=ORIENTED_EDGE($,*,*,#102,.T.);
#138=ORIENTED_EDGE($,*,*,#114,.T.);
#139=ORIENTED_EDGE($,*,*,#115,.T.);
#140=ORIENTED_EDGE($,*,*,#109,.T.);
#141=ORIENTED_EDGE($,*,*,#112,.T.);
#142=ORIENTED_EDGE($,*,*,#105,.T.);
#143=ORIENTED_EDGE($,*,*,#110,.F.);
#144=ORIENTED_EDGE($,*,*,#115,.F.);
#145=ORIENTED_EDGE($,*,*,#116,.T.);
#146=ORIENTED_EDGE($,*,*,#106,.T.);
#147=ORIENTED_EDGE($,*,*,#116,.F.);
#148=ORIENTED_EDGE($,*,*,#114,.F.);
#149=ORIENTED_EDGE($,*,*,#111,.T.);
#150=ORIENTED_EDGE($,*,*,#103,.F.);
#151=ORIENTED_EDGE($,*,*,#117,.T.);
#152=ORIENTED_EDGE($,*,*,#117,.F.);
#153=ORIENTED_EDGE($,*,*,#118,.T.);
#154=ORIENTED_EDGE($,*,*,#118,.F.);
#155=ORIENTED_EDGE($,*,*,#119,.T.);
#156=ORIENTED_EDGE($,*,*,#119,.F.);
#157=ORIENTED_EDGE($,*,*,#113,.T.);
#158=CONICAL_SURFACE($,#177,0.633974596215562,0.523598775598298);
#159=CONICAL_SURFACE($,#200,2.,0.785398163397447);
#160=CONICAL_SURFACE($,#204,1.5,0.785398163397448);
#161=ADVANCED_FACE($,(#38,#31),#158,.T.);
#162=ADVANCED_FACE($,(#39,#32),#28,.F.);
#163=ADVANCED_FACE($,(#40),#21,.F.);
#164=ADVANCED_FACE($,(#41),#22,.T.);
#165=ADVANCED_FACE($,(#42,#33),#23,.T.);
#166=ADVANCED_FACE($,(#43),#29,.T.);
#167=ADVANCED_FACE($,(#44),#30,.F.);
#168=ADVANCED_FACE($,(#45),#24,.T.);
#169=ADVANCED_FACE($,(#46),#25,.F.);
#170=ADVANCED_FACE($,(#47,#34),#26,.T.);
#171=ADVANCED_FACE($,(#48,#35),#159,.T.);
#172=ADVANCED_FACE($,(#49,#36),#27,.T.);
#173=ADVANCED_FACE($,(#50,#37),#160,.T.);
#174=CLOSED_SHELL($,(#161,#162,#163,#164,#165,#166,#167,#168,#169,#170,
#171,#172,#173));
#175=MANIFOLD_SOLID_BREP('LT208955_1',#174);
#176=AXIS2_PLACEMENT_3D('placement',#267,#205,#206);
#177=AXIS2_PLACEMENT_3D($,#268,#207,#208);
#178=AXIS2_PLACEMENT_3D($,#270,#209,#210);
#179=AXIS2_PLACEMENT_3D($,#272,#211,#212);
#180=AXIS2_PLACEMENT_3D($,#273,#213,#214);
#181=AXIS2_PLACEMENT_3D($,#275,#215,#216);
#182=AXIS2_PLACEMENT_3D($,#278,#217,#218);
#183=AXIS2_PLACEMENT_3D($,#280,#219,#220);
#184=AXIS2_PLACEMENT_3D($,#282,#221,#222);
#185=AXIS2_PLACEMENT_3D($,#283,#223,#224);
#186=AXIS2_PLACEMENT_3D($,#284,#225,#226);
#187=AXIS2_PLACEMENT_3D($,#288,#228,#229);
#188=AXIS2_PLACEMENT_3D($,#290,#231,#232);
#189=AXIS2_PLACEMENT_3D($,#293,#234,#235);
#190=AXIS2_PLACEMENT_3D($,#294,#236,#237);
#191=AXIS2_PLACEMENT_3D($,#296,#238,#239);
#192=AXIS2_PLACEMENT_3D($,#297,#240,#241);
#193=AXIS2_PLACEMENT_3D($,#298,#242,#243);
#194=AXIS2_PLACEMENT_3D($,#300,#244,#245);
#195=AXIS2_PLACEMENT_3D($,#301,#246,#247);
#196=AXIS2_PLACEMENT_3D($,#302,#248,#249);
#197=AXIS2_PLACEMENT_3D($,#304,#251,#252);
#198=AXIS2_PLACEMENT_3D($,#305,#253,#254);
#199=AXIS2_PLACEMENT_3D($,#307,#255,#256);
#200=AXIS2_PLACEMENT_3D($,#308,#257,#258);
#201=AXIS2_PLACEMENT_3D($,#310,#259,#260);
#202=AXIS2_PLACEMENT_3D($,#311,#261,#262);
#203=AXIS2_PLACEMENT_3D($,#313,#263,#264);
#204=AXIS2_PLACEMENT_3D($,#314,#265,#266);
#205=DIRECTION('axis',(0.,0.,1.));
#206=DIRECTION('refdir',(1.,0.,0.));
#207=DIRECTION('center_axis',(-1.,0.,0.));
#208=DIRECTION('ref_axis',(0.,0.,1.));
#209=DIRECTION('center_axis',(-1.,0.,0.));
#210=DIRECTION('ref_axis',(0.,0.,1.));
#211=DIRECTION('center_axis',(1.,0.,0.));
#212=DIRECTION('ref_axis',(0.,0.,-1.));
#213=DIRECTION('center_axis',(1.,0.,0.));
#214=DIRECTION('ref_axis',(0.,0.,-1.));
#215=DIRECTION('center_axis',(-1.,0.,0.));
#216=DIRECTION('ref_axis',(0.,0.,1.));
#217=DIRECTION('center_axis',(1.,-6.12303176911189E-017,0.));
#218=DIRECTION('ref_axis',(6.12303176911189E-017,1.,0.));
#219=DIRECTION('center_axis',(-1.,6.12303176911189E-017,0.));
#220=DIRECTION('ref_axis',(0.,0.,-1.));
#221=DIRECTION('center_axis',(1.,-6.12303176911189E-017,0.));
#222=DIRECTION('ref_axis',(-6.12303176911189E-017,-1.,0.));
#223=DIRECTION('center_axis',(-1.,6.12303176911189E-017,0.));
#224=DIRECTION('ref_axis',(0.,0.,1.));
#225=DIRECTION('center_axis',(-1.,0.,0.));
#226=DIRECTION('ref_axis',(0.,0.,-1.));
#227=DIRECTION($,(1.,0.,0.));
#228=DIRECTION('center_axis',(1.,-6.12303176911189E-017,0.));
#229=DIRECTION('ref_axis',(6.12303176911189E-017,1.,0.));
#230=DIRECTION($,(1.,0.,0.));
#231=DIRECTION('center_axis',(-1.,0.,0.));
#232=DIRECTION('ref_axis',(0.,0.,-1.));
#233=DIRECTION($,(1.,0.,0.));
#234=DIRECTION('center_axis',(-1.,6.12303176911189E-017,0.));
#235=DIRECTION('ref_axis',(0.,0.,1.));
#236=DIRECTION('center_axis',(1.,0.,0.));
#237=DIRECTION('ref_axis',(0.,0.,1.));
#238=DIRECTION('center_axis',(-1.,0.,0.));
#239=DIRECTION('ref_axis',(0.,0.,1.));
#240=DIRECTION('center_axis',(1.,0.,0.));
#241=DIRECTION('ref_axis',(0.,0.,-1.));
#242=DIRECTION('center_axis',(1.,-6.12303176911189E-017,0.));
#243=DIRECTION('ref_axis',(0.,1.,0.));
#244=DIRECTION('center_axis',(1.,-6.12303176911189E-017,0.));
#245=DIRECTION('ref_axis',(-6.12303176911189E-017,-1.,0.));
#246=DIRECTION('center_axis',(-1.,6.12303176911189E-017,0.));
#247=DIRECTION('ref_axis',(0.,0.,-1.));
#248=DIRECTION('center_axis',(-1.,0.,0.));
#249=DIRECTION('ref_axis',(0.,0.,-1.));
#250=DIRECTION($,(1.,0.,0.));
#251=DIRECTION('center_axis',(-1.,0.,0.));
#252=DIRECTION('ref_axis',(0.,0.,-1.));
#253=DIRECTION('center_axis',(1.,0.,0.));
#254=DIRECTION('ref_axis',(0.,0.,1.));
#255=DIRECTION('center_axis',(-1.,0.,0.));
#256=DIRECTION('ref_axis',(0.,0.,1.));
#257=DIRECTION('center_axis',(1.,0.,0.));
#258=DIRECTION('ref_axis',(0.,0.,-1.));
#259=DIRECTION('center_axis',(-1.,0.,0.));
#260=DIRECTION('ref_axis',(0.,0.,1.));
#261=DIRECTION('center_axis',(1.,0.,0.));
#262=DIRECTION('ref_axis',(0.,0.,1.));
#263=DIRECTION('center_axis',(-1.,0.,0.));
#264=DIRECTION('ref_axis',(0.,0.,1.));
#265=DIRECTION('center_axis',(-1.,0.,0.));
#266=DIRECTION('ref_axis',(0.,0.,1.));
#267=CARTESIAN_POINT('',(0.,0.,0.));
#268=CARTESIAN_POINT('Origin',(0.2,0.,0.));
#269=CARTESIAN_POINT('',(-1.3,0.,1.5));
#270=CARTESIAN_POINT('Origin',(-1.3,0.,0.));
#271=CARTESIAN_POINT('',(0.,0.,-0.749444650053487));
#272=CARTESIAN_POINT('Origin',(0.,0.,0.));
#273=CARTESIAN_POINT('Origin',(-20.,0.,1.4));
#274=CARTESIAN_POINT('',(-20.,0.,1.4));
#275=CARTESIAN_POINT('Origin',(-20.,0.,0.));
#276=CARTESIAN_POINT('',(-20.,0.372677996250951,0.166666666667771));
#277=CARTESIAN_POINT('',(-20.,0.37267799625095,-0.166666666667767));
#278=CARTESIAN_POINT('Origin',(-20.,0.559016994378274,1.73472347597681E-015));
#279=CARTESIAN_POINT('',(-20.,-0.372677996250951,0.166666666667771));
#280=CARTESIAN_POINT('Origin',(-20.,0.,0.500000000000002));
#281=CARTESIAN_POINT('',(-20.,-0.372677996250951,-0.166666666667767));
#282=CARTESIAN_POINT('Origin',(-20.,-0.559016994378274,1.73472347597681E-015));
#283=CARTESIAN_POINT('Origin',(-20.,0.,-0.499999999999998));
#284=CARTESIAN_POINT('Origin',(-25.,0.559016994378274,1.73472347597681E-015));
#285=CARTESIAN_POINT('',(-25.,0.37267799625095,-0.166666666667767));
#286=CARTESIAN_POINT($,(-25.,0.37267799625095,-0.166666666667767));
#287=CARTESIAN_POINT('',(-25.,0.372677996250951,0.166666666667771));
#288=CARTESIAN_POINT('Origin',(-25.,0.559016994378274,1.73472347597681E-015));
#289=CARTESIAN_POINT($,(-25.,0.372677996250951,0.166666666667771));
#290=CARTESIAN_POINT('Origin',(-25.,0.,-0.499999999999998));
#291=CARTESIAN_POINT('',(-25.,-0.372677996250951,-0.166666666667767));
#292=CARTESIAN_POINT($,(-25.,-0.372677996250951,-0.166666666667767));
#293=CARTESIAN_POINT('Origin',(-25.,0.,-0.499999999999998));
#294=CARTESIAN_POINT('Origin',(-20.,0.,0.));
#295=CARTESIAN_POINT('',(-3.,0.,1.5));
#296=CARTESIAN_POINT('Origin',(-3.,0.,0.));
#297=CARTESIAN_POINT('Origin',(0.,-37.1488896200142,13.5));
#298=CARTESIAN_POINT('Origin',(-25.,-0.279508497189137,0.250000000000002));
#299=CARTESIAN_POINT('',(-25.,-0.372677996250951,0.166666666667771));
#300=CARTESIAN_POINT('Origin',(-25.,-0.559016994378274,1.73472347597681E-015));
#301=CARTESIAN_POINT('Origin',(-25.,0.,0.500000000000002));
#302=CARTESIAN_POINT('Origin',(-25.,0.,0.500000000000002));
#303=CARTESIAN_POINT($,(-25.,-0.372677996250951,0.166666666667771));
#304=CARTESIAN_POINT('Origin',(-25.,-0.559016994378274,1.73472347597681E-015));
#305=CARTESIAN_POINT('Origin',(-20.,0.,0.));
#306=CARTESIAN_POINT('',(-18.,0.,1.4));
#307=CARTESIAN_POINT('Origin',(-18.,0.,0.));
#308=CARTESIAN_POINT('Origin',(-17.4,0.,0.));
#309=CARTESIAN_POINT('',(-17.4,0.,2.));
#310=CARTESIAN_POINT('Origin',(-17.4,0.,0.));
#311=CARTESIAN_POINT('Origin',(-20.,0.,0.));
#312=CARTESIAN_POINT('',(-3.5,0.,2.));
#313=CARTESIAN_POINT('Origin',(-3.5,0.,0.));
#314=CARTESIAN_POINT('Origin',(-3.,0.,0.));
#315=UNCERTAINTY_MEASURE_WITH_UNIT(LENGTH_MEASURE(0.01),#317,
'DISTANCE_ACCURACY_VALUE',
'Maximum model space distance between geometric entities at asserted c
onnectivities');
#316=(
GEOMETRIC_REPRESENTATION_CONTEXT(3)
GLOBAL_UNCERTAINTY_ASSIGNED_CONTEXT((#315))
GLOBAL_UNIT_ASSIGNED_CONTEXT((#317,#319,#318))
REPRESENTATION_CONTEXT('','3D')
);
#317=(
LENGTH_UNIT()
NAMED_UNIT(*)
SI_UNIT(.MILLI.,.METRE.)
);
#318=(
NAMED_UNIT(*)
SI_UNIT($,.STERADIAN.)
SOLID_ANGLE_UNIT()
);
#319=(
NAMED_UNIT(*)
PLANE_ANGLE_UNIT()
SI_UNIT($,.RADIAN.)
);
#320=SHAPE_DEFINITION_REPRESENTATION(#321,#322);
#321=PRODUCT_DEFINITION_SHAPE('',$,#324);
#322=SHAPE_REPRESENTATION('',(#176),#316);
#323=PRODUCT_DEFINITION_CONTEXT('3D Mechanical Parts',#327,'design');
#324=PRODUCT_DEFINITION('LT208955','LT208955',#325,#323);
#325=PRODUCT_DEFINITION_FORMATION('',$,#329);
#326=APPLICATION_PROTOCOL_DEFINITION('international standard',
'automotive_design',2009,#327);
#327=APPLICATION_CONTEXT(
'Core Data for Automotive Mechanical Design Process');
#328=PRODUCT_CONTEXT('3D Mechanical Parts',#327,'mechanical');
#329=PRODUCT('LT208955','LT208955',$,(#328));
#330=PRESENTATION_STYLE_ASSIGNMENT((#331));
#331=SURFACE_STYLE_USAGE(.BOTH.,#332);
#332=SURFACE_SIDE_STYLE($,(#333));
#333=SURFACE_STYLE_FILL_AREA(#334);
#334=FILL_AREA_STYLE($,(#335));
#335=FILL_AREA_STYLE_COLOUR($,#336);
#336=COLOUR_RGB('',0.749019607843137,0.749019607843137,0.749019607843137);
ENDSEC;
END-ISO-10303-21;
