ISO-10303-21;
HEADER;
/* Generated by software containing ST-Developer
 * from STEP Tools, Inc. (www.steptools.com) 
 */

FILE_DESCRIPTION(
/* description */ (''),
/* implementation_level */ '2;1');

FILE_NAME(
/* name */ 
'C:\\Users\\mitarbeiter\\Desktop\\3D\\Imported Components\\AO000005\\A
O000005.stp',
/* time_stamp */ '2016-09-28T09:58:08+02:00',
/* author */ ('mitarbeiter'),
/* organization */ (''),
/* preprocessor_version */ 'ST-DEVELOPER v15.2',
/* originating_system */ 'Autodesk Inventor 2014',
/* authorisation */ '');

FILE_SCHEMA (('AUTOMOTIVE_DESIGN { 1 0 10303 214 3 1 1 }'));
ENDSEC;

DATA;
#10=SHAPE_REPRESENTATION_RELATIONSHIP('SRR','None',#175,#11);
#11=ADVANCED_BREP_SHAPE_REPRESENTATION($,(#93),#166);
#12=STYLED_ITEM($,(#184),#93);
#13=CYLINDRICAL_SURFACE($,#100,20.5);
#14=CYLINDRICAL_SURFACE($,#102,15.);
#15=CYLINDRICAL_SURFACE($,#106,18.);
#16=PLANE($,#98);
#17=PLANE($,#105);
#18=PLANE($,#108);
#19=PLANE($,#109);
#20=FACE_BOUND($,#35,.T.);
#21=FACE_BOUND($,#37,.T.);
#22=FACE_BOUND($,#39,.T.);
#23=FACE_BOUND($,#41,.T.);
#24=FACE_BOUND($,#44,.T.);
#25=FACE_BOUND($,#46,.T.);
#26=FACE_OUTER_BOUND($,#34,.T.);
#27=FACE_OUTER_BOUND($,#36,.T.);
#28=FACE_OUTER_BOUND($,#38,.T.);
#29=FACE_OUTER_BOUND($,#40,.T.);
#30=FACE_OUTER_BOUND($,#42,.T.);
#31=FACE_OUTER_BOUND($,#43,.T.);
#32=FACE_OUTER_BOUND($,#45,.T.);
#33=FACE_OUTER_BOUND($,#47,.T.);
#34=EDGE_LOOP($,(#69));
#35=EDGE_LOOP($,(#70));
#36=EDGE_LOOP($,(#71));
#37=EDGE_LOOP($,(#72));
#38=EDGE_LOOP($,(#73));
#39=EDGE_LOOP($,(#74));
#40=EDGE_LOOP($,(#75));
#41=EDGE_LOOP($,(#76));
#42=EDGE_LOOP($,(#77));
#43=EDGE_LOOP($,(#78));
#44=EDGE_LOOP($,(#79));
#45=EDGE_LOOP($,(#80));
#46=EDGE_LOOP($,(#81));
#47=EDGE_LOOP($,(#82));
#48=CIRCLE($,#96,20.3);
#49=CIRCLE($,#97,20.5);
#50=CIRCLE($,#99,18.);
#51=CIRCLE($,#101,20.5);
#52=CIRCLE($,#103,15.);
#53=CIRCLE($,#104,15.);
#54=CIRCLE($,#107,18.);
#55=VERTEX_POINT($,#144);
#56=VERTEX_POINT($,#146);
#57=VERTEX_POINT($,#149);
#58=VERTEX_POINT($,#152);
#59=VERTEX_POINT($,#155);
#60=VERTEX_POINT($,#157);
#61=VERTEX_POINT($,#161);
#62=EDGE_CURVE($,#55,#55,#48,.T.);
#63=EDGE_CURVE($,#56,#56,#49,.T.);
#64=EDGE_CURVE($,#57,#57,#50,.T.);
#65=EDGE_CURVE($,#58,#58,#51,.T.);
#66=EDGE_CURVE($,#59,#59,#52,.T.);
#67=EDGE_CURVE($,#60,#60,#53,.T.);
#68=EDGE_CURVE($,#61,#61,#54,.T.);
#69=ORIENTED_EDGE($,*,*,#62,.T.);
#70=ORIENTED_EDGE($,*,*,#63,.T.);
#71=ORIENTED_EDGE($,*,*,#62,.F.);
#72=ORIENTED_EDGE($,*,*,#64,.T.);
#73=ORIENTED_EDGE($,*,*,#65,.T.);
#74=ORIENTED_EDGE($,*,*,#63,.F.);
#75=ORIENTED_EDGE($,*,*,#66,.T.);
#76=ORIENTED_EDGE($,*,*,#67,.F.);
#77=ORIENTED_EDGE($,*,*,#66,.F.);
#78=ORIENTED_EDGE($,*,*,#64,.F.);
#79=ORIENTED_EDGE($,*,*,#68,.F.);
#80=ORIENTED_EDGE($,*,*,#65,.F.);
#81=ORIENTED_EDGE($,*,*,#67,.T.);
#82=ORIENTED_EDGE($,*,*,#68,.T.);
#83=CONICAL_SURFACE($,#95,20.4,2.08256527973089);
#84=ADVANCED_FACE($,(#26,#20),#83,.T.);
#85=ADVANCED_FACE($,(#27,#21),#16,.T.);
#86=ADVANCED_FACE($,(#28,#22),#13,.T.);
#87=ADVANCED_FACE($,(#29,#23),#14,.T.);
#88=ADVANCED_FACE($,(#30),#17,.F.);
#89=ADVANCED_FACE($,(#31,#24),#15,.F.);
#90=ADVANCED_FACE($,(#32,#25),#18,.F.);
#91=ADVANCED_FACE($,(#33),#19,.T.);
#92=CLOSED_SHELL($,(#84,#85,#86,#87,#88,#89,#90,#91));
#93=MANIFOLD_SOLID_BREP('Volumenk\X\F6rper1',#92);
#94=AXIS2_PLACEMENT_3D('placement',#142,#110,#111);
#95=AXIS2_PLACEMENT_3D($,#143,#112,#113);
#96=AXIS2_PLACEMENT_3D($,#145,#114,#115);
#97=AXIS2_PLACEMENT_3D($,#147,#116,#117);
#98=AXIS2_PLACEMENT_3D($,#148,#118,#119);
#99=AXIS2_PLACEMENT_3D($,#150,#120,#121);
#100=AXIS2_PLACEMENT_3D($,#151,#122,#123);
#101=AXIS2_PLACEMENT_3D($,#153,#124,#125);
#102=AXIS2_PLACEMENT_3D($,#154,#126,#127);
#103=AXIS2_PLACEMENT_3D($,#156,#128,#129);
#104=AXIS2_PLACEMENT_3D($,#158,#130,#131);
#105=AXIS2_PLACEMENT_3D($,#159,#132,#133);
#106=AXIS2_PLACEMENT_3D($,#160,#134,#135);
#107=AXIS2_PLACEMENT_3D($,#162,#136,#137);
#108=AXIS2_PLACEMENT_3D($,#163,#138,#139);
#109=AXIS2_PLACEMENT_3D($,#164,#140,#141);
#110=DIRECTION('axis',(0.,0.,1.));
#111=DIRECTION('refdir',(1.,0.,0.));
#112=DIRECTION('center_axis',(0.,0.,1.));
#113=DIRECTION('ref_axis',(-1.,0.,0.));
#114=DIRECTION('center_axis',(0.,0.,1.));
#115=DIRECTION('ref_axis',(-1.,0.,0.));
#116=DIRECTION('center_axis',(0.,0.,-1.));
#117=DIRECTION('ref_axis',(-1.,0.,0.));
#118=DIRECTION('center_axis',(0.,0.,-1.));
#119=DIRECTION('ref_axis',(-1.,0.,0.));
#120=DIRECTION('center_axis',(0.,0.,1.));
#121=DIRECTION('ref_axis',(-1.,0.,0.));
#122=DIRECTION('center_axis',(0.,0.,1.));
#123=DIRECTION('ref_axis',(-1.,0.,0.));
#124=DIRECTION('center_axis',(0.,0.,-1.));
#125=DIRECTION('ref_axis',(-1.,0.,0.));
#126=DIRECTION('center_axis',(0.,0.,1.));
#127=DIRECTION('ref_axis',(-1.,0.,0.));
#128=DIRECTION('center_axis',(0.,0.,-1.));
#129=DIRECTION('ref_axis',(-1.,0.,0.));
#130=DIRECTION('center_axis',(0.,0.,-1.));
#131=DIRECTION('ref_axis',(-1.,0.,0.));
#132=DIRECTION('center_axis',(0.,0.,-1.));
#133=DIRECTION('ref_axis',(-1.,0.,0.));
#134=DIRECTION('center_axis',(0.,0.,-1.));
#135=DIRECTION('ref_axis',(-1.,0.,0.));
#136=DIRECTION('center_axis',(0.,0.,-1.));
#137=DIRECTION('ref_axis',(-1.,0.,0.));
#138=DIRECTION('center_axis',(0.,0.,-1.));
#139=DIRECTION('ref_axis',(-1.,0.,0.));
#140=DIRECTION('center_axis',(0.,0.,-1.));
#141=DIRECTION('ref_axis',(-1.,0.,0.));
#142=CARTESIAN_POINT('',(0.,0.,0.));
#143=CARTESIAN_POINT('Origin',(0.,0.,2.65));
#144=CARTESIAN_POINT('',(20.3,2.485951E-015,-0.1));
#145=CARTESIAN_POINT('Origin',(0.,0.,-0.1));
#146=CARTESIAN_POINT('',(20.5,-2.510443E-015,5.4));
#147=CARTESIAN_POINT('Origin',(0.,0.,5.4));
#148=CARTESIAN_POINT('Origin',(0.,0.,-0.1));
#149=CARTESIAN_POINT('',(18.,2.204291E-015,-0.1));
#150=CARTESIAN_POINT('Origin',(0.,0.,-0.1));
#151=CARTESIAN_POINT('Origin',(0.,0.,0.));
#152=CARTESIAN_POINT('',(20.5,2.510443E-015,6.8));
#153=CARTESIAN_POINT('Origin',(0.,0.,6.8));
#154=CARTESIAN_POINT('Origin',(0.,0.,0.));
#155=CARTESIAN_POINT('',(15.,1.83691E-015,8.4));
#156=CARTESIAN_POINT('Origin',(0.,0.,8.4));
#157=CARTESIAN_POINT('',(15.,-1.83691E-015,6.8));
#158=CARTESIAN_POINT('Origin',(0.,0.,6.8));
#159=CARTESIAN_POINT('Origin',(0.,0.,8.4));
#160=CARTESIAN_POINT('Origin',(0.,0.,0.));
#161=CARTESIAN_POINT('',(18.,2.204291E-015,0.));
#162=CARTESIAN_POINT('Origin',(0.,0.,0.));
#163=CARTESIAN_POINT('Origin',(0.,0.,6.8));
#164=CARTESIAN_POINT('Origin',(0.,0.,0.));
#165=UNCERTAINTY_MEASURE_WITH_UNIT(LENGTH_MEASURE(0.01),#167,
'DISTANCE_ACCURACY_VALUE',
'Maximum model space distance between geometric entities at asserted c
onnectivities');
#166=(
GEOMETRIC_REPRESENTATION_CONTEXT(3)
GLOBAL_UNCERTAINTY_ASSIGNED_CONTEXT((#165))
GLOBAL_UNIT_ASSIGNED_CONTEXT((#167,#170,#168))
REPRESENTATION_CONTEXT('','3D')
);
#167=(
LENGTH_UNIT()
NAMED_UNIT(*)
SI_UNIT(.MILLI.,.METRE.)
);
#168=(
NAMED_UNIT(*)
SI_UNIT($,.STERADIAN.)
SOLID_ANGLE_UNIT()
);
#169=DIMENSIONAL_EXPONENTS(0.,0.,0.,0.,0.,0.,0.);
#170=(
CONVERSION_BASED_UNIT('degree',#172)
NAMED_UNIT(#169)
PLANE_ANGLE_UNIT()
);
#171=(
NAMED_UNIT(*)
PLANE_ANGLE_UNIT()
SI_UNIT($,.RADIAN.)
);
#172=PLANE_ANGLE_MEASURE_WITH_UNIT(PLANE_ANGLE_MEASURE(0.01745329252),#171);
#173=SHAPE_DEFINITION_REPRESENTATION(#174,#175);
#174=PRODUCT_DEFINITION_SHAPE('',$,#177);
#175=SHAPE_REPRESENTATION('',(#94),#166);
#176=PRODUCT_DEFINITION_CONTEXT('3D Mechanical Parts',#180,'design');
#177=PRODUCT_DEFINITION('AO000005','AO000005',#178,#176);
#178=PRODUCT_DEFINITION_FORMATION('',$,#182);
#179=APPLICATION_PROTOCOL_DEFINITION('international standard',
'automotive_design',2009,#180);
#180=APPLICATION_CONTEXT(
'Core Data for Automotive Mechanical Design Process');
#181=PRODUCT_CONTEXT('3D Mechanical Parts',#180,'mechanical');
#182=PRODUCT('AO000005','AO000005',$,(#181));
#183=PRESENTATION_STYLE_ASSIGNMENT((#185));
#184=PRESENTATION_STYLE_ASSIGNMENT((#186));
#185=SURFACE_STYLE_USAGE(.BOTH.,#187);
#186=SURFACE_STYLE_USAGE(.BOTH.,#188);
#187=SURFACE_SIDE_STYLE($,(#189));
#188=SURFACE_SIDE_STYLE($,(#190));
#189=SURFACE_STYLE_FILL_AREA(#191);
#190=SURFACE_STYLE_FILL_AREA(#192);
#191=FILL_AREA_STYLE($,(#193));
#192=FILL_AREA_STYLE($,(#194));
#193=FILL_AREA_STYLE_COLOUR($,#195);
#194=FILL_AREA_STYLE_COLOUR($,#196);
#195=COLOUR_RGB('',0.749019607843137,0.749019607843137,0.749019607843137);
#196=COLOUR_RGB('',0.752941176470588,0.752941176470588,0.752941176470588);
ENDSEC;
END-ISO-10303-21;
