ISO-10303-21;
HEADER;
/* Generated by software containing ST-Developer
 * from STEP Tools, Inc. (www.steptools.com) 
 */

FILE_DESCRIPTION(
/* description */ (''),
/* implementation_level */ '2;1');

FILE_NAME(
/* name */ 
'C:\\Users\\mitarbeiter\\Desktop\\3D\\Imported Components\\LT207021\\L
T207021.stp',
/* time_stamp */ '2016-10-06T14:23:37+02:00',
/* author */ ('mitarbeiter'),
/* organization */ (''),
/* preprocessor_version */ 'ST-DEVELOPER v15.2',
/* originating_system */ 'Autodesk Inventor 2014',
/* authorisation */ '');

FILE_SCHEMA (('AUTOMOTIVE_DESIGN { 1 0 10303 214 3 1 1 }'));
ENDSEC;

DATA;
#10=ITEM_DEFINED_TRANSFORMATION($,$,#287,#335);
#11=(
REPRESENTATION_RELATIONSHIP($,$,#527,#528)
REPRESENTATION_RELATIONSHIP_WITH_TRANSFORMATION(#10)
SHAPE_REPRESENTATION_RELATIONSHIP()
);
#12=CONTEXT_DEPENDENT_SHAPE_REPRESENTATION(#11,#526);
#13=NEXT_ASSEMBLY_USAGE_OCCURRENCE('LT207021',$,$,#531,#530,$);
#14=SHAPE_REPRESENTATION_RELATIONSHIP('SRR','None',#527,#15);
#15=ADVANCED_BREP_SHAPE_REPRESENTATION($,(#286),#517);
#16=STYLED_ITEM($,(#539),#286);
#17=PLANE($,#325);
#18=PLANE($,#326);
#19=PLANE($,#327);
#20=PLANE($,#328);
#21=PLANE($,#329);
#22=PLANE($,#330);
#23=PLANE($,#331);
#24=PLANE($,#332);
#25=PLANE($,#333);
#26=LINE($,#485,#30);
#27=LINE($,#488,#31);
#28=LINE($,#505,#32);
#29=LINE($,#507,#33);
#30=VECTOR($,#394,15.);
#31=VECTOR($,#397,15.);
#32=VECTOR($,#420,3.3166247903554);
#33=VECTOR($,#423,3.3166247903554);
#34=CYLINDRICAL_SURFACE($,#300,1.1);
#35=CYLINDRICAL_SURFACE($,#303,1.6);
#36=CYLINDRICAL_SURFACE($,#306,1.1);
#37=CYLINDRICAL_SURFACE($,#308,1.1);
#38=CYLINDRICAL_SURFACE($,#309,1.1);
#39=CYLINDRICAL_SURFACE($,#311,1.1);
#40=CYLINDRICAL_SURFACE($,#312,1.1);
#41=CYLINDRICAL_SURFACE($,#314,3.);
#42=CYLINDRICAL_SURFACE($,#317,0.85);
#43=CYLINDRICAL_SURFACE($,#320,2.25);
#44=CYLINDRICAL_SURFACE($,#323,1.1);
#45=FACE_BOUND($,#90,.T.);
#46=FACE_BOUND($,#92,.T.);
#47=FACE_BOUND($,#94,.T.);
#48=FACE_BOUND($,#96,.T.);
#49=FACE_BOUND($,#98,.T.);
#50=FACE_BOUND($,#100,.T.);
#51=FACE_BOUND($,#102,.T.);
#52=FACE_BOUND($,#104,.T.);
#53=FACE_BOUND($,#106,.T.);
#54=FACE_BOUND($,#108,.T.);
#55=FACE_BOUND($,#110,.T.);
#56=FACE_BOUND($,#113,.T.);
#57=FACE_BOUND($,#115,.T.);
#58=FACE_BOUND($,#117,.T.);
#59=FACE_BOUND($,#119,.T.);
#60=FACE_BOUND($,#122,.T.);
#61=FACE_BOUND($,#123,.T.);
#62=FACE_BOUND($,#125,.T.);
#63=FACE_BOUND($,#129,.T.);
#64=FACE_BOUND($,#131,.T.);
#65=FACE_OUTER_BOUND($,#89,.T.);
#66=FACE_OUTER_BOUND($,#91,.T.);
#67=FACE_OUTER_BOUND($,#93,.T.);
#68=FACE_OUTER_BOUND($,#95,.T.);
#69=FACE_OUTER_BOUND($,#97,.T.);
#70=FACE_OUTER_BOUND($,#99,.T.);
#71=FACE_OUTER_BOUND($,#101,.T.);
#72=FACE_OUTER_BOUND($,#103,.T.);
#73=FACE_OUTER_BOUND($,#105,.T.);
#74=FACE_OUTER_BOUND($,#107,.T.);
#75=FACE_OUTER_BOUND($,#109,.T.);
#76=FACE_OUTER_BOUND($,#111,.T.);
#77=FACE_OUTER_BOUND($,#112,.T.);
#78=FACE_OUTER_BOUND($,#114,.T.);
#79=FACE_OUTER_BOUND($,#116,.T.);
#80=FACE_OUTER_BOUND($,#118,.T.);
#81=FACE_OUTER_BOUND($,#120,.T.);
#82=FACE_OUTER_BOUND($,#121,.T.);
#83=FACE_OUTER_BOUND($,#124,.T.);
#84=FACE_OUTER_BOUND($,#126,.T.);
#85=FACE_OUTER_BOUND($,#127,.T.);
#86=FACE_OUTER_BOUND($,#128,.T.);
#87=FACE_OUTER_BOUND($,#130,.T.);
#88=FACE_OUTER_BOUND($,#132,.T.);
#89=EDGE_LOOP($,(#205));
#90=EDGE_LOOP($,(#206));
#91=EDGE_LOOP($,(#207));
#92=EDGE_LOOP($,(#208));
#93=EDGE_LOOP($,(#209));
#94=EDGE_LOOP($,(#210));
#95=EDGE_LOOP($,(#211));
#96=EDGE_LOOP($,(#212));
#97=EDGE_LOOP($,(#213));
#98=EDGE_LOOP($,(#214));
#99=EDGE_LOOP($,(#215));
#100=EDGE_LOOP($,(#216));
#101=EDGE_LOOP($,(#217));
#102=EDGE_LOOP($,(#218));
#103=EDGE_LOOP($,(#219));
#104=EDGE_LOOP($,(#220));
#105=EDGE_LOOP($,(#221));
#106=EDGE_LOOP($,(#222));
#107=EDGE_LOOP($,(#223));
#108=EDGE_LOOP($,(#224));
#109=EDGE_LOOP($,(#225));
#110=EDGE_LOOP($,(#226));
#111=EDGE_LOOP($,(#227,#228,#229,#230));
#112=EDGE_LOOP($,(#231));
#113=EDGE_LOOP($,(#232));
#114=EDGE_LOOP($,(#233));
#115=EDGE_LOOP($,(#234));
#116=EDGE_LOOP($,(#235));
#117=EDGE_LOOP($,(#236));
#118=EDGE_LOOP($,(#237));
#119=EDGE_LOOP($,(#238));
#120=EDGE_LOOP($,(#239));
#121=EDGE_LOOP($,(#240,#241));
#122=EDGE_LOOP($,(#242));
#123=EDGE_LOOP($,(#243));
#124=EDGE_LOOP($,(#244,#245));
#125=EDGE_LOOP($,(#246));
#126=EDGE_LOOP($,(#247,#248,#249,#250));
#127=EDGE_LOOP($,(#251));
#128=EDGE_LOOP($,(#252));
#129=EDGE_LOOP($,(#253));
#130=EDGE_LOOP($,(#254));
#131=EDGE_LOOP($,(#255));
#132=EDGE_LOOP($,(#256));
#133=CIRCLE($,#289,1.1);
#134=CIRCLE($,#290,1.1);
#135=CIRCLE($,#292,1.1);
#136=CIRCLE($,#293,1.1);
#137=CIRCLE($,#295,1.1);
#138=CIRCLE($,#296,1.1);
#139=CIRCLE($,#298,1.1);
#140=CIRCLE($,#299,1.1);
#141=CIRCLE($,#301,1.1);
#142=CIRCLE($,#302,1.1);
#143=CIRCLE($,#304,1.6);
#144=CIRCLE($,#305,1.6);
#145=CIRCLE($,#307,1.1);
#146=CIRCLE($,#310,1.1);
#147=CIRCLE($,#313,1.1);
#148=CIRCLE($,#315,3.);
#149=CIRCLE($,#316,3.);
#150=CIRCLE($,#318,0.85);
#151=CIRCLE($,#319,0.85);
#152=CIRCLE($,#321,2.25);
#153=CIRCLE($,#322,2.25);
#154=CIRCLE($,#324,1.1);
#155=VERTEX_POINT($,#440);
#156=VERTEX_POINT($,#442);
#157=VERTEX_POINT($,#445);
#158=VERTEX_POINT($,#447);
#159=VERTEX_POINT($,#450);
#160=VERTEX_POINT($,#452);
#161=VERTEX_POINT($,#455);
#162=VERTEX_POINT($,#457);
#163=VERTEX_POINT($,#460);
#164=VERTEX_POINT($,#462);
#165=VERTEX_POINT($,#465);
#166=VERTEX_POINT($,#467);
#167=VERTEX_POINT($,#470);
#168=VERTEX_POINT($,#474);
#169=VERTEX_POINT($,#478);
#170=VERTEX_POINT($,#481);
#171=VERTEX_POINT($,#482);
#172=VERTEX_POINT($,#484);
#173=VERTEX_POINT($,#486);
#174=VERTEX_POINT($,#490);
#175=VERTEX_POINT($,#492);
#176=VERTEX_POINT($,#495);
#177=VERTEX_POINT($,#497);
#178=VERTEX_POINT($,#500);
#179=EDGE_CURVE($,#155,#155,#133,.T.);
#180=EDGE_CURVE($,#156,#156,#134,.T.);
#181=EDGE_CURVE($,#157,#157,#135,.T.);
#182=EDGE_CURVE($,#158,#158,#136,.T.);
#183=EDGE_CURVE($,#159,#159,#137,.T.);
#184=EDGE_CURVE($,#160,#160,#138,.T.);
#185=EDGE_CURVE($,#161,#161,#139,.T.);
#186=EDGE_CURVE($,#162,#162,#140,.T.);
#187=EDGE_CURVE($,#163,#163,#141,.T.);
#188=EDGE_CURVE($,#164,#164,#142,.T.);
#189=EDGE_CURVE($,#165,#165,#143,.T.);
#190=EDGE_CURVE($,#166,#166,#144,.T.);
#191=EDGE_CURVE($,#167,#167,#145,.T.);
#192=EDGE_CURVE($,#168,#168,#146,.T.);
#193=EDGE_CURVE($,#169,#169,#147,.T.);
#194=EDGE_CURVE($,#170,#171,#148,.T.);
#195=EDGE_CURVE($,#172,#171,#26,.T.);
#196=EDGE_CURVE($,#173,#172,#149,.T.);
#197=EDGE_CURVE($,#173,#170,#27,.T.);
#198=EDGE_CURVE($,#174,#174,#150,.T.);
#199=EDGE_CURVE($,#175,#175,#151,.T.);
#200=EDGE_CURVE($,#176,#176,#152,.T.);
#201=EDGE_CURVE($,#177,#177,#153,.T.);
#202=EDGE_CURVE($,#178,#178,#154,.T.);
#203=EDGE_CURVE($,#172,#173,#28,.T.);
#204=EDGE_CURVE($,#171,#170,#29,.T.);
#205=ORIENTED_EDGE($,*,*,#179,.T.);
#206=ORIENTED_EDGE($,*,*,#180,.F.);
#207=ORIENTED_EDGE($,*,*,#181,.T.);
#208=ORIENTED_EDGE($,*,*,#182,.F.);
#209=ORIENTED_EDGE($,*,*,#183,.T.);
#210=ORIENTED_EDGE($,*,*,#184,.F.);
#211=ORIENTED_EDGE($,*,*,#185,.T.);
#212=ORIENTED_EDGE($,*,*,#186,.F.);
#213=ORIENTED_EDGE($,*,*,#187,.F.);
#214=ORIENTED_EDGE($,*,*,#188,.F.);
#215=ORIENTED_EDGE($,*,*,#189,.T.);
#216=ORIENTED_EDGE($,*,*,#190,.F.);
#217=ORIENTED_EDGE($,*,*,#179,.F.);
#218=ORIENTED_EDGE($,*,*,#191,.T.);
#219=ORIENTED_EDGE($,*,*,#180,.T.);
#220=ORIENTED_EDGE($,*,*,#181,.F.);
#221=ORIENTED_EDGE($,*,*,#183,.F.);
#222=ORIENTED_EDGE($,*,*,#192,.T.);
#223=ORIENTED_EDGE($,*,*,#184,.T.);
#224=ORIENTED_EDGE($,*,*,#185,.F.);
#225=ORIENTED_EDGE($,*,*,#186,.T.);
#226=ORIENTED_EDGE($,*,*,#193,.F.);
#227=ORIENTED_EDGE($,*,*,#194,.T.);
#228=ORIENTED_EDGE($,*,*,#195,.F.);
#229=ORIENTED_EDGE($,*,*,#196,.F.);
#230=ORIENTED_EDGE($,*,*,#197,.T.);
#231=ORIENTED_EDGE($,*,*,#198,.F.);
#232=ORIENTED_EDGE($,*,*,#199,.T.);
#233=ORIENTED_EDGE($,*,*,#200,.T.);
#234=ORIENTED_EDGE($,*,*,#201,.F.);
#235=ORIENTED_EDGE($,*,*,#182,.T.);
#236=ORIENTED_EDGE($,*,*,#202,.T.);
#237=ORIENTED_EDGE($,*,*,#200,.F.);
#238=ORIENTED_EDGE($,*,*,#198,.T.);
#239=ORIENTED_EDGE($,*,*,#199,.F.);
#240=ORIENTED_EDGE($,*,*,#203,.T.);
#241=ORIENTED_EDGE($,*,*,#196,.T.);
#242=ORIENTED_EDGE($,*,*,#191,.F.);
#243=ORIENTED_EDGE($,*,*,#192,.F.);
#244=ORIENTED_EDGE($,*,*,#204,.F.);
#245=ORIENTED_EDGE($,*,*,#194,.F.);
#246=ORIENTED_EDGE($,*,*,#201,.T.);
#247=ORIENTED_EDGE($,*,*,#204,.T.);
#248=ORIENTED_EDGE($,*,*,#197,.F.);
#249=ORIENTED_EDGE($,*,*,#203,.F.);
#250=ORIENTED_EDGE($,*,*,#195,.T.);
#251=ORIENTED_EDGE($,*,*,#193,.T.);
#252=ORIENTED_EDGE($,*,*,#189,.F.);
#253=ORIENTED_EDGE($,*,*,#202,.F.);
#254=ORIENTED_EDGE($,*,*,#190,.T.);
#255=ORIENTED_EDGE($,*,*,#187,.T.);
#256=ORIENTED_EDGE($,*,*,#188,.T.);
#257=TOROIDAL_SURFACE($,#288,4.,1.1);
#258=TOROIDAL_SURFACE($,#291,3.99999999999999,1.1);
#259=TOROIDAL_SURFACE($,#294,4.,1.1);
#260=TOROIDAL_SURFACE($,#297,4.,1.1);
#261=ADVANCED_FACE($,(#65,#45),#257,.T.);
#262=ADVANCED_FACE($,(#66,#46),#258,.T.);
#263=ADVANCED_FACE($,(#67,#47),#259,.T.);
#264=ADVANCED_FACE($,(#68,#48),#260,.T.);
#265=ADVANCED_FACE($,(#69,#49),#34,.T.);
#266=ADVANCED_FACE($,(#70,#50),#35,.T.);
#267=ADVANCED_FACE($,(#71,#51),#36,.T.);
#268=ADVANCED_FACE($,(#72,#52),#37,.T.);
#269=ADVANCED_FACE($,(#73,#53),#38,.T.);
#270=ADVANCED_FACE($,(#74,#54),#39,.T.);
#271=ADVANCED_FACE($,(#75,#55),#40,.T.);
#272=ADVANCED_FACE($,(#76),#41,.T.);
#273=ADVANCED_FACE($,(#77,#56),#42,.F.);
#274=ADVANCED_FACE($,(#78,#57),#43,.T.);
#275=ADVANCED_FACE($,(#79,#58),#44,.T.);
#276=ADVANCED_FACE($,(#80,#59),#17,.T.);
#277=ADVANCED_FACE($,(#81),#18,.T.);
#278=ADVANCED_FACE($,(#82,#60,#61),#19,.T.);
#279=ADVANCED_FACE($,(#83,#62),#20,.T.);
#280=ADVANCED_FACE($,(#84),#21,.F.);
#281=ADVANCED_FACE($,(#85),#22,.T.);
#282=ADVANCED_FACE($,(#86,#63),#23,.F.);
#283=ADVANCED_FACE($,(#87,#64),#24,.T.);
#284=ADVANCED_FACE($,(#88),#25,.T.);
#285=CLOSED_SHELL($,(#261,#262,#263,#264,#265,#266,#267,#268,#269,#270,
#271,#272,#273,#274,#275,#276,#277,#278,#279,#280,#281,#282,#283,#284));
#286=MANIFOLD_SOLID_BREP('NONE',#285);
#287=AXIS2_PLACEMENT_3D('placement',#438,#336,#337);
#288=AXIS2_PLACEMENT_3D($,#439,#338,#339);
#289=AXIS2_PLACEMENT_3D($,#441,#340,#341);
#290=AXIS2_PLACEMENT_3D($,#443,#342,#343);
#291=AXIS2_PLACEMENT_3D($,#444,#344,#345);
#292=AXIS2_PLACEMENT_3D($,#446,#346,#347);
#293=AXIS2_PLACEMENT_3D($,#448,#348,#349);
#294=AXIS2_PLACEMENT_3D($,#449,#350,#351);
#295=AXIS2_PLACEMENT_3D($,#451,#352,#353);
#296=AXIS2_PLACEMENT_3D($,#453,#354,#355);
#297=AXIS2_PLACEMENT_3D($,#454,#356,#357);
#298=AXIS2_PLACEMENT_3D($,#456,#358,#359);
#299=AXIS2_PLACEMENT_3D($,#458,#360,#361);
#300=AXIS2_PLACEMENT_3D($,#459,#362,#363);
#301=AXIS2_PLACEMENT_3D($,#461,#364,#365);
#302=AXIS2_PLACEMENT_3D($,#463,#366,#367);
#303=AXIS2_PLACEMENT_3D($,#464,#368,#369);
#304=AXIS2_PLACEMENT_3D($,#466,#370,#371);
#305=AXIS2_PLACEMENT_3D($,#468,#372,#373);
#306=AXIS2_PLACEMENT_3D($,#469,#374,#375);
#307=AXIS2_PLACEMENT_3D($,#471,#376,#377);
#308=AXIS2_PLACEMENT_3D($,#472,#378,#379);
#309=AXIS2_PLACEMENT_3D($,#473,#380,#381);
#310=AXIS2_PLACEMENT_3D($,#475,#382,#383);
#311=AXIS2_PLACEMENT_3D($,#476,#384,#385);
#312=AXIS2_PLACEMENT_3D($,#477,#386,#387);
#313=AXIS2_PLACEMENT_3D($,#479,#388,#389);
#314=AXIS2_PLACEMENT_3D($,#480,#390,#391);
#315=AXIS2_PLACEMENT_3D($,#483,#392,#393);
#316=AXIS2_PLACEMENT_3D($,#487,#395,#396);
#317=AXIS2_PLACEMENT_3D($,#489,#398,#399);
#318=AXIS2_PLACEMENT_3D($,#491,#400,#401);
#319=AXIS2_PLACEMENT_3D($,#493,#402,#403);
#320=AXIS2_PLACEMENT_3D($,#494,#404,#405);
#321=AXIS2_PLACEMENT_3D($,#496,#406,#407);
#322=AXIS2_PLACEMENT_3D($,#498,#408,#409);
#323=AXIS2_PLACEMENT_3D($,#499,#410,#411);
#324=AXIS2_PLACEMENT_3D($,#501,#412,#413);
#325=AXIS2_PLACEMENT_3D($,#502,#414,#415);
#326=AXIS2_PLACEMENT_3D($,#503,#416,#417);
#327=AXIS2_PLACEMENT_3D($,#504,#418,#419);
#328=AXIS2_PLACEMENT_3D($,#506,#421,#422);
#329=AXIS2_PLACEMENT_3D($,#508,#424,#425);
#330=AXIS2_PLACEMENT_3D($,#509,#426,#427);
#331=AXIS2_PLACEMENT_3D($,#510,#428,#429);
#332=AXIS2_PLACEMENT_3D($,#511,#430,#431);
#333=AXIS2_PLACEMENT_3D($,#512,#432,#433);
#334=AXIS2_PLACEMENT_3D('placement',#513,#434,#435);
#335=AXIS2_PLACEMENT_3D($,#514,#436,#437);
#336=DIRECTION('axis',(0.,0.,1.));
#337=DIRECTION('refdir',(1.,0.,0.));
#338=DIRECTION('center_axis',(1.,0.,0.));
#339=DIRECTION('ref_axis',(0.,0.,-1.));
#340=DIRECTION('center_axis',(0.,0.,-1.));
#341=DIRECTION('ref_axis',(-1.,0.,0.));
#342=DIRECTION('center_axis',(0.,0.573462344363328,-0.81923192051904));
#343=DIRECTION('ref_axis',(-1.,0.,0.));
#344=DIRECTION('center_axis',(-1.,0.,0.));
#345=DIRECTION('ref_axis',(0.,0.,1.));
#346=DIRECTION('center_axis',(0.,0.573462344363328,-0.81923192051904));
#347=DIRECTION('ref_axis',(-1.,0.,0.));
#348=DIRECTION('center_axis',(0.,0.,-1.));
#349=DIRECTION('ref_axis',(-1.,0.,0.));
#350=DIRECTION('center_axis',(-1.,0.,0.));
#351=DIRECTION('ref_axis',(0.,0.,1.));
#352=DIRECTION('center_axis',(0.,0.,-1.));
#353=DIRECTION('ref_axis',(-1.,0.,0.));
#354=DIRECTION('center_axis',(0.,-0.573462344363328,-0.819231920519041));
#355=DIRECTION('ref_axis',(-1.,0.,0.));
#356=DIRECTION('center_axis',(1.,0.,0.));
#357=DIRECTION('ref_axis',(0.,0.,-1.));
#358=DIRECTION('center_axis',(0.,-0.573462344363328,-0.819231920519041));
#359=DIRECTION('ref_axis',(-1.,0.,0.));
#360=DIRECTION('center_axis',(0.,2.22044604925031E-016,-1.));
#361=DIRECTION('ref_axis',(-1.,0.,0.));
#362=DIRECTION('center_axis',(0.,4.4779640723845E-017,-1.));
#363=DIRECTION('ref_axis',(0.,1.,4.4779640723845E-017));
#364=DIRECTION('center_axis',(0.,-7.21644966006352E-016,1.));
#365=DIRECTION('ref_axis',(0.,1.,7.21644966006352E-016));
#366=DIRECTION('center_axis',(0.,0.,-1.));
#367=DIRECTION('ref_axis',(-1.,0.,0.));
#368=DIRECTION('center_axis',(0.,7.21644966006352E-016,-1.));
#369=DIRECTION('ref_axis',(0.,1.,7.21644966006352E-016));
#370=DIRECTION('center_axis',(0.,7.21644966006352E-016,-1.));
#371=DIRECTION('ref_axis',(0.,1.,7.21644966006352E-016));
#372=DIRECTION('center_axis',(0.,7.21644966006352E-016,-1.));
#373=DIRECTION('ref_axis',(0.,1.,7.21644966006352E-016));
#374=DIRECTION('center_axis',(0.,-5.79925094621975E-017,1.));
#375=DIRECTION('ref_axis',(0.,-1.,-5.79925094621975E-017));
#376=DIRECTION('center_axis',(0.,0.,-1.));
#377=DIRECTION('ref_axis',(-1.,0.,0.));
#378=DIRECTION('center_axis',(0.,0.573462344363327,-0.819231920519041));
#379=DIRECTION('ref_axis',(0.,0.819231920519041,0.573462344363327));
#380=DIRECTION('center_axis',(0.,0.,1.));
#381=DIRECTION('ref_axis',(1.,0.,0.));
#382=DIRECTION('center_axis',(0.,0.,-1.));
#383=DIRECTION('ref_axis',(-1.,0.,0.));
#384=DIRECTION('center_axis',(0.,-0.573462344363328,-0.819231920519041));
#385=DIRECTION('ref_axis',(0.,0.819231920519041,-0.573462344363328));
#386=DIRECTION('center_axis',(0.,0.,-1.));
#387=DIRECTION('ref_axis',(-1.,0.,0.));
#388=DIRECTION('center_axis',(0.,2.22044604925031E-016,-1.));
#389=DIRECTION('ref_axis',(-1.,0.,0.));
#390=DIRECTION('center_axis',(0.,1.22460635382238E-016,-1.));
#391=DIRECTION('ref_axis',(0.,1.,1.22460635382238E-016));
#392=DIRECTION('center_axis',(0.,1.22460635382238E-016,-1.));
#393=DIRECTION('ref_axis',(0.,1.,1.22460635382238E-016));
#394=DIRECTION($,(0.,0.,1.));
#395=DIRECTION('center_axis',(0.,1.22460635382238E-016,-1.));
#396=DIRECTION('ref_axis',(0.,1.,1.22460635382238E-016));
#397=DIRECTION($,(0.,0.,1.));
#398=DIRECTION('center_axis',(0.,1.22460635382238E-016,-1.));
#399=DIRECTION('ref_axis',(0.,1.,1.22460635382238E-016));
#400=DIRECTION('center_axis',(0.,1.22460635382238E-016,-1.));
#401=DIRECTION('ref_axis',(0.,1.,1.22460635382238E-016));
#402=DIRECTION('center_axis',(0.,1.22460635382238E-016,-1.));
#403=DIRECTION('ref_axis',(0.,1.,1.22460635382238E-016));
#404=DIRECTION('center_axis',(0.,1.22460635382238E-016,-1.));
#405=DIRECTION('ref_axis',(0.,1.,1.22460635382238E-016));
#406=DIRECTION('center_axis',(0.,1.22460635382238E-016,-1.));
#407=DIRECTION('ref_axis',(0.,1.,1.22460635382238E-016));
#408=DIRECTION('center_axis',(0.,1.22460635382238E-016,-1.));
#409=DIRECTION('ref_axis',(0.,1.,1.22460635382238E-016));
#410=DIRECTION('center_axis',(0.,4.4779640723845E-017,-1.));
#411=DIRECTION('ref_axis',(0.,1.,4.4779640723845E-017));
#412=DIRECTION('center_axis',(0.,-7.21644966006352E-016,1.));
#413=DIRECTION('ref_axis',(0.,1.,7.21644966006352E-016));
#414=DIRECTION('center_axis',(0.,-1.22460635382238E-016,1.));
#415=DIRECTION('ref_axis',(0.,-1.,-1.22460635382238E-016));
#416=DIRECTION('center_axis',(0.,-1.22460635382238E-016,1.));
#417=DIRECTION('ref_axis',(0.,-1.,-1.2490009027033E-016));
#418=DIRECTION('center_axis',(0.,1.22460635382238E-016,-1.));
#419=DIRECTION('ref_axis',(0.,1.,0.));
#420=DIRECTION($,(0.,-1.,0.));
#421=DIRECTION('center_axis',(0.,-1.22460635382238E-016,1.));
#422=DIRECTION('ref_axis',(0.,-1.,0.));
#423=DIRECTION($,(0.,-1.,0.));
#424=DIRECTION('center_axis',(-1.,0.,0.));
#425=DIRECTION('ref_axis',(0.,0.,1.));
#426=DIRECTION('center_axis',(0.,2.22044604925031E-016,-1.));
#427=DIRECTION('ref_axis',(-1.,0.,0.));
#428=DIRECTION('center_axis',(0.,7.21644966006352E-016,-1.));
#429=DIRECTION('ref_axis',(0.,1.,0.));
#430=DIRECTION('center_axis',(0.,7.21644966006352E-016,-1.));
#431=DIRECTION('ref_axis',(0.,1.,0.));
#432=DIRECTION('center_axis',(0.,0.,-1.));
#433=DIRECTION('ref_axis',(-1.,0.,0.));
#434=DIRECTION('axis',(0.,0.,1.));
#435=DIRECTION('refdir',(1.,0.,0.));
#436=DIRECTION($,(0.,0.,1.));
#437=DIRECTION($,(1.,0.,0.));
#438=CARTESIAN_POINT('',(0.,0.,0.));
#439=CARTESIAN_POINT('Origin',(0.,5.15,-20.7391110767236));
#440=CARTESIAN_POINT('',(1.34706698920462E-016,2.25,-20.7391110767236));
#441=CARTESIAN_POINT('Origin',(0.,1.15,-20.7391110767236));
#442=CARTESIAN_POINT('',(0.,2.77422743049478,-22.4021518753773));
#443=CARTESIAN_POINT('Origin',(0.,1.87307231792384,-23.0329604541769));
#444=CARTESIAN_POINT('Origin',(0.,0.65,-28.2608889232764));
#445=CARTESIAN_POINT('',(1.34706698920462E-016,3.02577256950521,-26.5978481246228));
#446=CARTESIAN_POINT('Origin',(0.,3.92692768207616,-25.9670395458231));
#447=CARTESIAN_POINT('',(1.34706698920461E-016,3.55,-28.2608889232764));
#448=CARTESIAN_POINT('Origin',(0.,4.65,-28.2608889232764));
#449=CARTESIAN_POINT('Origin',(0.,-5.15,-20.7391110767236));
#450=CARTESIAN_POINT('',(1.1,-1.15,-20.7391110767236));
#451=CARTESIAN_POINT('Origin',(0.,-1.15,-20.7391110767236));
#452=CARTESIAN_POINT('',(1.34706698920462E-016,-2.77422743049478,-22.4021518753773));
#453=CARTESIAN_POINT('Origin',(0.,-1.87307231792384,-23.0329604541769));
#454=CARTESIAN_POINT('Origin',(0.,-0.65,-28.2608889232764));
#455=CARTESIAN_POINT('',(0.,-3.02577256950522,-26.5978481246228));
#456=CARTESIAN_POINT('Origin',(0.,-3.92692768207616,-25.9670395458231));
#457=CARTESIAN_POINT('',(-1.1,-4.65,-28.2608889232764));
#458=CARTESIAN_POINT('Origin',(0.,-4.65,-28.2608889232764));
#459=CARTESIAN_POINT('Origin',(0.,4.65,-28.2608889232764));
#460=CARTESIAN_POINT('',(0.,5.75,-59.));
#461=CARTESIAN_POINT('Origin',(0.,4.65,-59.));
#462=CARTESIAN_POINT('',(0.,5.75,-67.));
#463=CARTESIAN_POINT('Origin',(0.,4.65,-67.));
#464=CARTESIAN_POINT('Origin',(0.,4.65,-29.));
#465=CARTESIAN_POINT('',(0.,6.25,-29.));
#466=CARTESIAN_POINT('Origin',(0.,4.65,-29.));
#467=CARTESIAN_POINT('',(0.,6.25000000000002,-59.));
#468=CARTESIAN_POINT('Origin',(0.,4.65000000000002,-59.));
#469=CARTESIAN_POINT('Origin',(0.,1.15,-20.7391110767236));
#470=CARTESIAN_POINT('',(0.,0.0499999999999999,-17.));
#471=CARTESIAN_POINT('Origin',(0.,1.15,-17.));
#472=CARTESIAN_POINT('Origin',(0.,1.87307231792384,-23.0329604541769));
#473=CARTESIAN_POINT('Origin',(0.,-1.15,-20.7391110767236));
#474=CARTESIAN_POINT('',(1.1,-1.15,-17.));
#475=CARTESIAN_POINT('Origin',(0.,-1.15,-17.));
#476=CARTESIAN_POINT('Origin',(0.,-1.87307231792384,-23.0329604541769));
#477=CARTESIAN_POINT('Origin',(0.,-4.65,-28.2608889232764));
#478=CARTESIAN_POINT('',(-1.1,-4.65,-67.));
#479=CARTESIAN_POINT('Origin',(0.,-4.65,-67.));
#480=CARTESIAN_POINT('Origin',(0.,0.,-17.));
#481=CARTESIAN_POINT('',(2.5,-1.6583123951777,-2.));
#482=CARTESIAN_POINT('',(2.5,1.6583123951777,-2.));
#483=CARTESIAN_POINT('Origin',(0.,-1.83690953073357E-015,-2.));
#484=CARTESIAN_POINT('',(2.5,1.6583123951777,-17.));
#485=CARTESIAN_POINT($,(2.5,1.6583123951777,-17.));
#486=CARTESIAN_POINT('',(2.5,-1.6583123951777,-17.));
#487=CARTESIAN_POINT('Origin',(0.,4.49898216546641E-032,-17.));
#488=CARTESIAN_POINT($,(2.5,-1.6583123951777,-17.));
#489=CARTESIAN_POINT('Origin',(0.,0.,-17.));
#490=CARTESIAN_POINT('',(0.,0.849999999999997,1.04091540074902E-016));
#491=CARTESIAN_POINT('Origin',(0.,-2.08183080149804E-015,0.));
#492=CARTESIAN_POINT('',(0.,0.849999999999998,-0.0999999999999993));
#493=CARTESIAN_POINT('Origin',(0.,-2.06958473795982E-015,-0.0999999999999994));
#494=CARTESIAN_POINT('Origin',(0.,0.,-17.));
#495=CARTESIAN_POINT('',(0.,2.25,2.75536429610035E-016));
#496=CARTESIAN_POINT('Origin',(0.,-2.08183080149804E-015,0.));
#497=CARTESIAN_POINT('',(0.,2.25,-2.));
#498=CARTESIAN_POINT('Origin',(0.,-1.83690953073357E-015,-2.));
#499=CARTESIAN_POINT('Origin',(0.,4.65,-28.2608889232764));
#500=CARTESIAN_POINT('',(0.,5.75,-29.));
#501=CARTESIAN_POINT('Origin',(0.,4.65,-29.));
#502=CARTESIAN_POINT('Origin',(0.,0.849999999999997,-8.57224447675663E-017));
#503=CARTESIAN_POINT('Origin',(0.,0.849999999999998,-0.0999999999999997));
#504=CARTESIAN_POINT('Origin',(0.,3.,-17.));
#505=CARTESIAN_POINT($,(2.5,1.6583123951777,-17.));
#506=CARTESIAN_POINT('Origin',(0.,2.25,-2.));
#507=CARTESIAN_POINT($,(2.5,1.6583123951777,-2.));
#508=CARTESIAN_POINT('Origin',(2.5,1.6583123951777,-17.));
#509=CARTESIAN_POINT('Origin',(0.,-4.65,-67.));
#510=CARTESIAN_POINT('Origin',(0.,4.65,-29.));
#511=CARTESIAN_POINT('Origin',(0.,4.65000000000002,-59.));
#512=CARTESIAN_POINT('Origin',(0.,4.65,-67.));
#513=CARTESIAN_POINT('',(0.,0.,0.));
#514=CARTESIAN_POINT($,(0.,0.,0.));
#515=UNCERTAINTY_MEASURE_WITH_UNIT(LENGTH_MEASURE(0.01),#519,
'DISTANCE_ACCURACY_VALUE',
'Maximum model space distance between geometric entities at asserted c
onnectivities');
#516=UNCERTAINTY_MEASURE_WITH_UNIT(LENGTH_MEASURE(0.01),#519,
'DISTANCE_ACCURACY_VALUE',
'Maximum model space distance between geometric entities at asserted c
onnectivities');
#517=(
GEOMETRIC_REPRESENTATION_CONTEXT(3)
GLOBAL_UNCERTAINTY_ASSIGNED_CONTEXT((#515))
GLOBAL_UNIT_ASSIGNED_CONTEXT((#519,#521,#520))
REPRESENTATION_CONTEXT('','3D')
);
#518=(
GEOMETRIC_REPRESENTATION_CONTEXT(3)
GLOBAL_UNCERTAINTY_ASSIGNED_CONTEXT((#516))
GLOBAL_UNIT_ASSIGNED_CONTEXT((#519,#521,#520))
REPRESENTATION_CONTEXT('','3D')
);
#519=(
LENGTH_UNIT()
NAMED_UNIT(*)
SI_UNIT(.MILLI.,.METRE.)
);
#520=(
NAMED_UNIT(*)
SI_UNIT($,.STERADIAN.)
SOLID_ANGLE_UNIT()
);
#521=(
NAMED_UNIT(*)
PLANE_ANGLE_UNIT()
SI_UNIT($,.RADIAN.)
);
#522=SHAPE_DEFINITION_REPRESENTATION(#524,#527);
#523=SHAPE_DEFINITION_REPRESENTATION(#525,#528);
#524=PRODUCT_DEFINITION_SHAPE('',$,#530);
#525=PRODUCT_DEFINITION_SHAPE('',$,#531);
#526=PRODUCT_DEFINITION_SHAPE($,$,#13);
#527=SHAPE_REPRESENTATION('',(#287),#517);
#528=SHAPE_REPRESENTATION('',(#334,#335),#518);
#529=PRODUCT_DEFINITION_CONTEXT('3D Mechanical Parts',#535,'design');
#530=PRODUCT_DEFINITION('LT207021_','LT207021_',#532,#529);
#531=PRODUCT_DEFINITION('LT207021','LT207021',#533,#529);
#532=PRODUCT_DEFINITION_FORMATION('',$,#537);
#533=PRODUCT_DEFINITION_FORMATION('',$,#538);
#534=APPLICATION_PROTOCOL_DEFINITION('international standard',
'automotive_design',2009,#535);
#535=APPLICATION_CONTEXT(
'Core Data for Automotive Mechanical Design Process');
#536=PRODUCT_CONTEXT('3D Mechanical Parts',#535,'mechanical');
#537=PRODUCT('LT207021_','LT207021_',$,(#536));
#538=PRODUCT('LT207021','LT207021',$,(#536));
#539=PRESENTATION_STYLE_ASSIGNMENT((#540));
#540=SURFACE_STYLE_USAGE(.BOTH.,#541);
#541=SURFACE_SIDE_STYLE($,(#542));
#542=SURFACE_STYLE_FILL_AREA(#543);
#543=FILL_AREA_STYLE($,(#544));
#544=FILL_AREA_STYLE_COLOUR($,#545);
#545=COLOUR_RGB('',0.749019607843137,0.749019607843137,0.749019607843137);
ENDSEC;
END-ISO-10303-21;
