ISO-10303-21;
HEADER;
/* Generated by software containing ST-Developer
 * from STEP Tools, Inc. (www.steptools.com) 
 */

FILE_DESCRIPTION(
/* description */ (''),
/* implementation_level */ '2;1');

FILE_NAME(
/* name */ 
'C:\\Users\\mitarbeiter\\Desktop\\3D\\Imported Components\\IC12A443\\I
C12A443.stp',
/* time_stamp */ '2016-10-04T14:08:33+02:00',
/* author */ ('mitarbeiter'),
/* organization */ (''),
/* preprocessor_version */ 'ST-DEVELOPER v15.2',
/* originating_system */ 'Autodesk Inventor 2014',
/* authorisation */ '');

FILE_SCHEMA (('AUTOMOTIVE_DESIGN { 1 0 10303 214 3 1 1 }'));
ENDSEC;

DATA;
#10=ITEM_DEFINED_TRANSFORMATION($,$,#134,#157);
#11=(
REPRESENTATION_RELATIONSHIP($,$,#252,#253)
REPRESENTATION_RELATIONSHIP_WITH_TRANSFORMATION(#10)
SHAPE_REPRESENTATION_RELATIONSHIP()
);
#12=CONTEXT_DEPENDENT_SHAPE_REPRESENTATION(#11,#251);
#13=NEXT_ASSEMBLY_USAGE_OCCURRENCE('IC12A443',$,$,#256,#255,$);
#14=DIMENSIONAL_EXPONENTS(0.,0.,0.,0.,0.,0.,0.);
#15=(
CONVERSION_BASED_UNIT('degree',#16)
NAMED_UNIT(#14)
PLANE_ANGLE_UNIT()
);
#16=PLANE_ANGLE_MEASURE_WITH_UNIT(PLANE_ANGLE_MEASURE(0.01745329252),#246);
#17=SHAPE_REPRESENTATION_RELATIONSHIP('SRR','None',#252,#18);
#18=ADVANCED_BREP_SHAPE_REPRESENTATION($,(#133),#242);
#19=STYLED_ITEM($,(#264),#133);
#20=PLANE($,#152);
#21=PLANE($,#153);
#22=PLANE($,#154);
#23=PLANE($,#155);
#24=SPHERICAL_SURFACE($,#150,0.5);
#25=CYLINDRICAL_SURFACE($,#138,6.);
#26=CYLINDRICAL_SURFACE($,#142,5.);
#27=CYLINDRICAL_SURFACE($,#144,3.5);
#28=CYLINDRICAL_SURFACE($,#147,2.5);
#29=FACE_BOUND($,#50,.T.);
#30=FACE_BOUND($,#52,.T.);
#31=FACE_BOUND($,#54,.T.);
#32=FACE_BOUND($,#56,.T.);
#33=FACE_BOUND($,#58,.T.);
#34=FACE_BOUND($,#60,.T.);
#35=FACE_BOUND($,#64,.T.);
#36=FACE_BOUND($,#66,.T.);
#37=FACE_BOUND($,#67,.T.);
#38=FACE_OUTER_BOUND($,#49,.T.);
#39=FACE_OUTER_BOUND($,#51,.T.);
#40=FACE_OUTER_BOUND($,#53,.T.);
#41=FACE_OUTER_BOUND($,#55,.T.);
#42=FACE_OUTER_BOUND($,#57,.T.);
#43=FACE_OUTER_BOUND($,#59,.T.);
#44=FACE_OUTER_BOUND($,#61,.T.);
#45=FACE_OUTER_BOUND($,#62,.T.);
#46=FACE_OUTER_BOUND($,#63,.T.);
#47=FACE_OUTER_BOUND($,#65,.T.);
#48=FACE_OUTER_BOUND($,#68,.T.);
#49=EDGE_LOOP($,(#99));
#50=EDGE_LOOP($,(#100));
#51=EDGE_LOOP($,(#101));
#52=EDGE_LOOP($,(#102));
#53=EDGE_LOOP($,(#103));
#54=EDGE_LOOP($,(#104));
#55=EDGE_LOOP($,(#105));
#56=EDGE_LOOP($,(#106));
#57=EDGE_LOOP($,(#107));
#58=EDGE_LOOP($,(#108));
#59=EDGE_LOOP($,(#109));
#60=EDGE_LOOP($,(#110));
#61=EDGE_LOOP($,(#111));
#62=EDGE_LOOP($,(#112));
#63=EDGE_LOOP($,(#113));
#64=EDGE_LOOP($,(#114));
#65=EDGE_LOOP($,(#115));
#66=EDGE_LOOP($,(#116));
#67=EDGE_LOOP($,(#117));
#68=EDGE_LOOP($,(#118));
#69=CIRCLE($,#136,5.);
#70=CIRCLE($,#137,6.);
#71=CIRCLE($,#139,6.);
#72=CIRCLE($,#141,5.);
#73=CIRCLE($,#143,5.);
#74=CIRCLE($,#145,3.5);
#75=CIRCLE($,#146,3.5);
#76=CIRCLE($,#148,2.5);
#77=CIRCLE($,#149,2.5);
#78=CIRCLE($,#151,0.5);
#79=VERTEX_POINT($,#208);
#80=VERTEX_POINT($,#210);
#81=VERTEX_POINT($,#213);
#82=VERTEX_POINT($,#216);
#83=VERTEX_POINT($,#219);
#84=VERTEX_POINT($,#222);
#85=VERTEX_POINT($,#224);
#86=VERTEX_POINT($,#227);
#87=VERTEX_POINT($,#229);
#88=VERTEX_POINT($,#232);
#89=EDGE_CURVE($,#79,#79,#69,.T.);
#90=EDGE_CURVE($,#80,#80,#70,.T.);
#91=EDGE_CURVE($,#81,#81,#71,.T.);
#92=EDGE_CURVE($,#82,#82,#72,.T.);
#93=EDGE_CURVE($,#83,#83,#73,.T.);
#94=EDGE_CURVE($,#84,#84,#74,.T.);
#95=EDGE_CURVE($,#85,#85,#75,.T.);
#96=EDGE_CURVE($,#86,#86,#76,.T.);
#97=EDGE_CURVE($,#87,#87,#77,.T.);
#98=EDGE_CURVE($,#88,#88,#78,.T.);
#99=ORIENTED_EDGE($,*,*,#89,.F.);
#100=ORIENTED_EDGE($,*,*,#90,.T.);
#101=ORIENTED_EDGE($,*,*,#90,.F.);
#102=ORIENTED_EDGE($,*,*,#91,.T.);
#103=ORIENTED_EDGE($,*,*,#91,.F.);
#104=ORIENTED_EDGE($,*,*,#92,.T.);
#105=ORIENTED_EDGE($,*,*,#92,.F.);
#106=ORIENTED_EDGE($,*,*,#93,.T.);
#107=ORIENTED_EDGE($,*,*,#94,.F.);
#108=ORIENTED_EDGE($,*,*,#95,.T.);
#109=ORIENTED_EDGE($,*,*,#96,.F.);
#110=ORIENTED_EDGE($,*,*,#97,.T.);
#111=ORIENTED_EDGE($,*,*,#98,.F.);
#112=ORIENTED_EDGE($,*,*,#97,.F.);
#113=ORIENTED_EDGE($,*,*,#95,.F.);
#114=ORIENTED_EDGE($,*,*,#96,.T.);
#115=ORIENTED_EDGE($,*,*,#93,.F.);
#116=ORIENTED_EDGE($,*,*,#94,.T.);
#117=ORIENTED_EDGE($,*,*,#98,.T.);
#118=ORIENTED_EDGE($,*,*,#89,.T.);
#119=CONICAL_SURFACE($,#135,5.5,0.785398163397448);
#120=CONICAL_SURFACE($,#140,5.5,0.785398163397448);
#121=ADVANCED_FACE($,(#38,#29),#119,.T.);
#122=ADVANCED_FACE($,(#39,#30),#25,.T.);
#123=ADVANCED_FACE($,(#40,#31),#120,.T.);
#124=ADVANCED_FACE($,(#41,#32),#26,.T.);
#125=ADVANCED_FACE($,(#42,#33),#27,.T.);
#126=ADVANCED_FACE($,(#43,#34),#28,.T.);
#127=ADVANCED_FACE($,(#44),#24,.T.);
#128=ADVANCED_FACE($,(#45),#20,.T.);
#129=ADVANCED_FACE($,(#46,#35),#21,.T.);
#130=ADVANCED_FACE($,(#47,#36,#37),#22,.T.);
#131=ADVANCED_FACE($,(#48),#23,.T.);
#132=CLOSED_SHELL($,(#121,#122,#123,#124,#125,#126,#127,#128,#129,#130,
#131));
#133=MANIFOLD_SOLID_BREP('1',#132);
#134=AXIS2_PLACEMENT_3D('placement',#206,#158,#159);
#135=AXIS2_PLACEMENT_3D($,#207,#160,#161);
#136=AXIS2_PLACEMENT_3D($,#209,#162,#163);
#137=AXIS2_PLACEMENT_3D($,#211,#164,#165);
#138=AXIS2_PLACEMENT_3D($,#212,#166,#167);
#139=AXIS2_PLACEMENT_3D($,#214,#168,#169);
#140=AXIS2_PLACEMENT_3D($,#215,#170,#171);
#141=AXIS2_PLACEMENT_3D($,#217,#172,#173);
#142=AXIS2_PLACEMENT_3D($,#218,#174,#175);
#143=AXIS2_PLACEMENT_3D($,#220,#176,#177);
#144=AXIS2_PLACEMENT_3D($,#221,#178,#179);
#145=AXIS2_PLACEMENT_3D($,#223,#180,#181);
#146=AXIS2_PLACEMENT_3D($,#225,#182,#183);
#147=AXIS2_PLACEMENT_3D($,#226,#184,#185);
#148=AXIS2_PLACEMENT_3D($,#228,#186,#187);
#149=AXIS2_PLACEMENT_3D($,#230,#188,#189);
#150=AXIS2_PLACEMENT_3D($,#231,#190,#191);
#151=AXIS2_PLACEMENT_3D($,#233,#192,#193);
#152=AXIS2_PLACEMENT_3D($,#234,#194,#195);
#153=AXIS2_PLACEMENT_3D($,#235,#196,#197);
#154=AXIS2_PLACEMENT_3D($,#236,#198,#199);
#155=AXIS2_PLACEMENT_3D($,#237,#200,#201);
#156=AXIS2_PLACEMENT_3D('placement',#238,#202,#203);
#157=AXIS2_PLACEMENT_3D($,#239,#204,#205);
#158=DIRECTION('axis',(0.,0.,1.));
#159=DIRECTION('refdir',(1.,0.,0.));
#160=DIRECTION('center_axis',(0.,-1.,0.));
#161=DIRECTION('ref_axis',(-1.,0.,0.));
#162=DIRECTION('center_axis',(0.,1.,0.));
#163=DIRECTION('ref_axis',(-1.,0.,0.));
#164=DIRECTION('center_axis',(0.,1.,0.));
#165=DIRECTION('ref_axis',(-1.,0.,0.));
#166=DIRECTION('center_axis',(0.,-1.,0.));
#167=DIRECTION('ref_axis',(-1.,0.,0.));
#168=DIRECTION('center_axis',(0.,1.,0.));
#169=DIRECTION('ref_axis',(-1.,0.,0.));
#170=DIRECTION('center_axis',(0.,1.,0.));
#171=DIRECTION('ref_axis',(-1.,0.,0.));
#172=DIRECTION('center_axis',(0.,1.,0.));
#173=DIRECTION('ref_axis',(-1.,0.,0.));
#174=DIRECTION('center_axis',(0.,-1.,0.));
#175=DIRECTION('ref_axis',(-1.,0.,0.));
#176=DIRECTION('center_axis',(0.,1.,0.));
#177=DIRECTION('ref_axis',(-1.,0.,0.));
#178=DIRECTION('center_axis',(0.,-1.,0.));
#179=DIRECTION('ref_axis',(-1.,0.,0.));
#180=DIRECTION('center_axis',(0.,1.,0.));
#181=DIRECTION('ref_axis',(-1.,0.,0.));
#182=DIRECTION('center_axis',(0.,1.,0.));
#183=DIRECTION('ref_axis',(-1.,0.,0.));
#184=DIRECTION('center_axis',(0.,-1.,0.));
#185=DIRECTION('ref_axis',(-1.,0.,0.));
#186=DIRECTION('center_axis',(0.,1.,0.));
#187=DIRECTION('ref_axis',(-1.,0.,0.));
#188=DIRECTION('center_axis',(0.,1.,0.));
#189=DIRECTION('ref_axis',(-1.,0.,0.));
#190=DIRECTION('center_axis',(0.,1.,0.));
#191=DIRECTION('ref_axis',(0.,0.,-1.));
#192=DIRECTION('center_axis',(0.,1.,0.));
#193=DIRECTION('ref_axis',(0.,0.,1.));
#194=DIRECTION('center_axis',(0.,-1.,0.));
#195=DIRECTION('ref_axis',(1.,0.,0.));
#196=DIRECTION('center_axis',(0.,-1.,0.));
#197=DIRECTION('ref_axis',(1.,0.,0.));
#198=DIRECTION('center_axis',(0.,-1.,0.));
#199=DIRECTION('ref_axis',(1.,0.,0.));
#200=DIRECTION('center_axis',(0.,1.,0.));
#201=DIRECTION('ref_axis',(-1.,0.,0.));
#202=DIRECTION('axis',(0.,0.,1.));
#203=DIRECTION('refdir',(1.,0.,0.));
#204=DIRECTION($,(0.,0.,1.));
#205=DIRECTION($,(1.,0.,0.));
#206=CARTESIAN_POINT('',(0.,0.,0.));
#207=CARTESIAN_POINT('Origin',(0.,-0.5,0.));
#208=CARTESIAN_POINT('',(5.,0.,6.12303176911189E-016));
#209=CARTESIAN_POINT('Origin',(0.,0.,0.));
#210=CARTESIAN_POINT('',(6.,-1.,7.34763812293426E-016));
#211=CARTESIAN_POINT('Origin',(0.,-1.,0.));
#212=CARTESIAN_POINT('Origin',(0.,-25.,0.));
#213=CARTESIAN_POINT('',(6.,-49.,7.34763812293426E-016));
#214=CARTESIAN_POINT('Origin',(0.,-49.,0.));
#215=CARTESIAN_POINT('Origin',(0.,-49.5,0.));
#216=CARTESIAN_POINT('',(5.,-50.,6.12303176911189E-016));
#217=CARTESIAN_POINT('Origin',(0.,-50.,0.));
#218=CARTESIAN_POINT('Origin',(0.,-50.5,0.));
#219=CARTESIAN_POINT('',(5.,-51.,6.12303176911189E-016));
#220=CARTESIAN_POINT('Origin',(0.,-51.,0.));
#221=CARTESIAN_POINT('Origin',(0.,-51.5,0.));
#222=CARTESIAN_POINT('',(3.5,-51.,4.28612223837832E-016));
#223=CARTESIAN_POINT('Origin',(0.,-51.,0.));
#224=CARTESIAN_POINT('',(3.5,-52.,4.28612223837832E-016));
#225=CARTESIAN_POINT('Origin',(0.,-52.,0.));
#226=CARTESIAN_POINT('Origin',(0.,-62.,0.));
#227=CARTESIAN_POINT('',(2.5,-52.,3.06151588455594E-016));
#228=CARTESIAN_POINT('Origin',(0.,-52.,0.));
#229=CARTESIAN_POINT('',(2.5,-72.,3.06151588455594E-016));
#230=CARTESIAN_POINT('Origin',(0.,-72.,0.));
#231=CARTESIAN_POINT('Origin',(0.,-51.,4.1));
#232=CARTESIAN_POINT('',(0.,-51.,4.6));
#233=CARTESIAN_POINT('Origin',(0.,-51.,4.1));
#234=CARTESIAN_POINT('Origin',(-1.25,-72.,0.));
#235=CARTESIAN_POINT('Origin',(-3.,-52.,0.));
#236=CARTESIAN_POINT('Origin',(-4.25,-51.,0.));
#237=CARTESIAN_POINT('Origin',(-2.5,0.,0.));
#238=CARTESIAN_POINT('',(0.,0.,0.));
#239=CARTESIAN_POINT($,(0.,0.,0.));
#240=UNCERTAINTY_MEASURE_WITH_UNIT(LENGTH_MEASURE(0.01),#244,
'DISTANCE_ACCURACY_VALUE',
'Maximum model space distance between geometric entities at asserted c
onnectivities');
#241=UNCERTAINTY_MEASURE_WITH_UNIT(LENGTH_MEASURE(0.01),#244,
'DISTANCE_ACCURACY_VALUE',
'Maximum model space distance between geometric entities at asserted c
onnectivities');
#242=(
GEOMETRIC_REPRESENTATION_CONTEXT(3)
GLOBAL_UNCERTAINTY_ASSIGNED_CONTEXT((#240))
GLOBAL_UNIT_ASSIGNED_CONTEXT((#244,#246,#245))
REPRESENTATION_CONTEXT('','3D')
);
#243=(
GEOMETRIC_REPRESENTATION_CONTEXT(3)
GLOBAL_UNCERTAINTY_ASSIGNED_CONTEXT((#241))
GLOBAL_UNIT_ASSIGNED_CONTEXT((#244,#15,#245))
REPRESENTATION_CONTEXT('','3D')
);
#244=(
LENGTH_UNIT()
NAMED_UNIT(*)
SI_UNIT(.MILLI.,.METRE.)
);
#245=(
NAMED_UNIT(*)
SI_UNIT($,.STERADIAN.)
SOLID_ANGLE_UNIT()
);
#246=(
NAMED_UNIT(*)
PLANE_ANGLE_UNIT()
SI_UNIT($,.RADIAN.)
);
#247=SHAPE_DEFINITION_REPRESENTATION(#249,#252);
#248=SHAPE_DEFINITION_REPRESENTATION(#250,#253);
#249=PRODUCT_DEFINITION_SHAPE('',$,#255);
#250=PRODUCT_DEFINITION_SHAPE('',$,#256);
#251=PRODUCT_DEFINITION_SHAPE($,$,#13);
#252=SHAPE_REPRESENTATION('',(#134),#242);
#253=SHAPE_REPRESENTATION('',(#156,#157),#243);
#254=PRODUCT_DEFINITION_CONTEXT('3D Mechanical Parts',#260,'design');
#255=PRODUCT_DEFINITION('1','1',#257,#254);
#256=PRODUCT_DEFINITION('IC12A443','IC12A443',#258,#254);
#257=PRODUCT_DEFINITION_FORMATION('',$,#262);
#258=PRODUCT_DEFINITION_FORMATION('',$,#263);
#259=APPLICATION_PROTOCOL_DEFINITION('international standard',
'automotive_design',2009,#260);
#260=APPLICATION_CONTEXT(
'Core Data for Automotive Mechanical Design Process');
#261=PRODUCT_CONTEXT('3D Mechanical Parts',#260,'mechanical');
#262=PRODUCT('1','1',$,(#261));
#263=PRODUCT('IC12A443','IC12A443',$,(#261));
#264=PRESENTATION_STYLE_ASSIGNMENT((#265));
#265=SURFACE_STYLE_USAGE(.BOTH.,#266);
#266=SURFACE_SIDE_STYLE($,(#267));
#267=SURFACE_STYLE_FILL_AREA(#268);
#268=FILL_AREA_STYLE($,(#269));
#269=FILL_AREA_STYLE_COLOUR($,#270);
#270=COLOUR_RGB('',0.749019607843137,0.749019607843137,0.749019607843137);
ENDSEC;
END-ISO-10303-21;
