ISO-10303-21;
HEADER;
/* Generated by software containing ST-Developer
 * from STEP Tools, Inc. (www.steptools.com) 
 */

FILE_DESCRIPTION(
/* description */ (''),
/* implementation_level */ '2;1');

FILE_NAME(
/* name */ 
'C:\\Users\\mitarbeiter\\Desktop\\3D\\Imported Components\\IB0602A4\\I
B0602A4.stp',
/* time_stamp */ '2016-09-30T10:34:31+02:00',
/* author */ ('mitarbeiter'),
/* organization */ (''),
/* preprocessor_version */ 'ST-DEVELOPER v15.2',
/* originating_system */ 'Autodesk Inventor 2014',
/* authorisation */ '');

FILE_SCHEMA (('AUTOMOTIVE_DESIGN { 1 0 10303 214 3 1 1 }'));
ENDSEC;

DATA;
#10=ITEM_DEFINED_TRANSFORMATION($,$,#76,#88);
#11=ITEM_DEFINED_TRANSFORMATION($,$,#82,#89);
#12=(
REPRESENTATION_RELATIONSHIP($,$,#191,#193)
REPRESENTATION_RELATIONSHIP_WITH_TRANSFORMATION(#10)
SHAPE_REPRESENTATION_RELATIONSHIP()
);
#13=(
REPRESENTATION_RELATIONSHIP($,$,#192,#193)
REPRESENTATION_RELATIONSHIP_WITH_TRANSFORMATION(#11)
SHAPE_REPRESENTATION_RELATIONSHIP()
);
#14=CONTEXT_DEPENDENT_SHAPE_REPRESENTATION(#12,#189);
#15=CONTEXT_DEPENDENT_SHAPE_REPRESENTATION(#13,#190);
#16=NEXT_ASSEMBLY_USAGE_OCCURRENCE('Geh\X\E4use_IB0601A4:1',$,$,#197,#195,
$);
#17=NEXT_ASSEMBLY_USAGE_OCCURRENCE('Leitung_IB0601A4:1',$,$,#197,#196,$);
#18=B_SPLINE_CURVE_WITH_KNOTS($,3,(#129,#130,#131,#132,#133,#134,#135,#136,
#137,#138,#139,#140,#141,#142,#143,#144,#145,#146,#147,#148,#149,#150,#151,
#152,#153,#154,#155,#156,#157,#158,#159,#160,#161,#162,#163),
 .UNSPECIFIED.,.T.,.F.,(4,2,2,2,2,2,2,2,2,2,2,2,3,2,2,2,4),(-0.812221101679941,
-0.743578402529798,-0.674935703379655,-0.607230535353058,-0.539525367326462,
-0.471820199299866,-0.404115031273269,-0.335472332123126,-0.266829632972983,
-0.200529829735476,-0.134230026497968,-0.0671150132489839,0.,0.0671150132489839,
0.134230026497968,0.200529829735476,0.266829632972983),.UNSPECIFIED.);
#19=SHAPE_REPRESENTATION_RELATIONSHIP('SRR','None',#191,#21);
#20=SHAPE_REPRESENTATION_RELATIONSHIP('SRR','None',#192,#22);
#21=ADVANCED_BREP_SHAPE_REPRESENTATION($,(#74),#174);
#22=ADVANCED_BREP_SHAPE_REPRESENTATION($,(#75),#175);
#23=STYLED_ITEM($,(#208),#74);
#24=STYLED_ITEM($,(#209),#75);
#25=FACE_BOUND($,#39,.T.);
#26=FACE_BOUND($,#42,.T.);
#27=CYLINDRICAL_SURFACE($,#81,3.25);
#28=CYLINDRICAL_SURFACE($,#83,3.49322200840427);
#29=CYLINDRICAL_SURFACE($,#84,1.75);
#30=FACE_OUTER_BOUND($,#36,.T.);
#31=FACE_OUTER_BOUND($,#37,.T.);
#32=FACE_OUTER_BOUND($,#38,.T.);
#33=FACE_OUTER_BOUND($,#40,.T.);
#34=FACE_OUTER_BOUND($,#41,.T.);
#35=FACE_OUTER_BOUND($,#43,.T.);
#36=EDGE_LOOP($,(#55));
#37=EDGE_LOOP($,(#56));
#38=EDGE_LOOP($,(#57));
#39=EDGE_LOOP($,(#58));
#40=EDGE_LOOP($,(#59));
#41=EDGE_LOOP($,(#60));
#42=EDGE_LOOP($,(#61));
#43=EDGE_LOOP($,(#62));
#44=CIRCLE($,#78,3.25);
#45=CIRCLE($,#80,3.25);
#46=CIRCLE($,#85,1.75);
#47=VERTEX_POINT($,#120);
#48=VERTEX_POINT($,#123);
#49=VERTEX_POINT($,#128);
#50=VERTEX_POINT($,#165);
#51=EDGE_CURVE($,#47,#47,#44,.T.);
#52=EDGE_CURVE($,#48,#48,#45,.T.);
#53=EDGE_CURVE($,#49,#49,#18,.T.);
#54=EDGE_CURVE($,#50,#50,#46,.T.);
#55=ORIENTED_EDGE($,*,*,#51,.T.);
#56=ORIENTED_EDGE($,*,*,#52,.F.);
#57=ORIENTED_EDGE($,*,*,#51,.F.);
#58=ORIENTED_EDGE($,*,*,#52,.T.);
#59=ORIENTED_EDGE($,*,*,#53,.F.);
#60=ORIENTED_EDGE($,*,*,#53,.T.);
#61=ORIENTED_EDGE($,*,*,#54,.T.);
#62=ORIENTED_EDGE($,*,*,#54,.F.);
#63=PLANE($,#77);
#64=PLANE($,#79);
#65=PLANE($,#86);
#66=ADVANCED_FACE($,(#30),#63,.T.);
#67=ADVANCED_FACE($,(#31),#64,.T.);
#68=ADVANCED_FACE($,(#32,#25),#27,.T.);
#69=ADVANCED_FACE($,(#33),#28,.T.);
#70=ADVANCED_FACE($,(#34,#26),#29,.T.);
#71=ADVANCED_FACE($,(#35),#65,.T.);
#72=CLOSED_SHELL($,(#66,#67,#68));
#73=CLOSED_SHELL($,(#69,#70,#71));
#74=MANIFOLD_SOLID_BREP('Volumenk\X\F6rper1',#72);
#75=MANIFOLD_SOLID_BREP('Volumenk\X\F6rper1',#73);
#76=AXIS2_PLACEMENT_3D('placement',#118,#90,#91);
#77=AXIS2_PLACEMENT_3D($,#119,#92,#93);
#78=AXIS2_PLACEMENT_3D($,#121,#94,#95);
#79=AXIS2_PLACEMENT_3D($,#122,#96,#97);
#80=AXIS2_PLACEMENT_3D($,#124,#98,#99);
#81=AXIS2_PLACEMENT_3D($,#125,#100,#101);
#82=AXIS2_PLACEMENT_3D('placement',#126,#102,#103);
#83=AXIS2_PLACEMENT_3D($,#127,#104,#105);
#84=AXIS2_PLACEMENT_3D($,#164,#106,#107);
#85=AXIS2_PLACEMENT_3D($,#166,#108,#109);
#86=AXIS2_PLACEMENT_3D($,#167,#110,#111);
#87=AXIS2_PLACEMENT_3D('placement',#168,#112,#113);
#88=AXIS2_PLACEMENT_3D($,#169,#114,#115);
#89=AXIS2_PLACEMENT_3D($,#170,#116,#117);
#90=DIRECTION('axis',(0.,0.,1.));
#91=DIRECTION('refdir',(1.,0.,0.));
#92=DIRECTION('center_axis',(1.,0.,0.));
#93=DIRECTION('ref_axis',(0.,0.,-1.));
#94=DIRECTION('center_axis',(1.,0.,0.));
#95=DIRECTION('ref_axis',(0.,1.,0.));
#96=DIRECTION('center_axis',(-1.,0.,0.));
#97=DIRECTION('ref_axis',(0.,0.,1.));
#98=DIRECTION('center_axis',(1.,0.,0.));
#99=DIRECTION('ref_axis',(0.,1.,0.));
#100=DIRECTION('center_axis',(1.,0.,0.));
#101=DIRECTION('ref_axis',(0.,1.,0.));
#102=DIRECTION('axis',(0.,0.,1.));
#103=DIRECTION('refdir',(1.,0.,0.));
#104=DIRECTION('center_axis',(0.,-1.,0.));
#105=DIRECTION('ref_axis',(-0.628340718608296,0.,-0.777938263192402));
#106=DIRECTION('center_axis',(1.,-9.38648E-017,0.));
#107=DIRECTION('ref_axis',(9.38648E-017,1.,0.));
#108=DIRECTION('center_axis',(1.,0.,0.));
#109=DIRECTION('ref_axis',(0.,1.,0.));
#110=DIRECTION('center_axis',(-1.,0.,0.));
#111=DIRECTION('ref_axis',(0.,0.,1.));
#112=DIRECTION('axis',(0.,0.,1.));
#113=DIRECTION('refdir',(1.,0.,0.));
#114=DIRECTION($,(0.,0.,1.));
#115=DIRECTION($,(1.,0.,0.));
#116=DIRECTION($,(-5.210543E-033,-5.551115E-017,1.));
#117=DIRECTION($,(1.,0.,5.210543E-033));
#118=CARTESIAN_POINT('',(0.,0.,0.));
#119=CARTESIAN_POINT('Origin',(16.,1.625,0.));
#120=CARTESIAN_POINT('',(16.,3.25,0.));
#121=CARTESIAN_POINT('Origin',(16.,0.,0.));
#122=CARTESIAN_POINT('Origin',(2.003453E-031,1.625,0.));
#123=CARTESIAN_POINT('',(4.006906E-031,3.25,0.));
#124=CARTESIAN_POINT('Origin',(0.,0.,0.));
#125=CARTESIAN_POINT('Origin',(8.,0.,0.));
#126=CARTESIAN_POINT('',(0.,0.,0.));
#127=CARTESIAN_POINT('Origin',(2.80506637298094,1.75,0.282488937836509));
#128=CARTESIAN_POINT('',(6.28684752635632,1.75,-5.068731E-016));
#129=CARTESIAN_POINT('Ctrl Pts',(6.28684752635632,1.75,-6.93889390390723E-017));
#130=CARTESIAN_POINT('Ctrl Pts',(6.26834426191402,1.75,-0.228059611482639));
#131=CARTESIAN_POINT('Ctrl Pts',(6.22445654346176,1.70290789844383,-0.466340497797692));
#132=CARTESIAN_POINT('Ctrl Pts',(6.10051039176362,1.52031851427298,-0.897775146993782));
#133=CARTESIAN_POINT('Ctrl Pts',(6.02128049600025,1.38509356044599,-1.09128167965687));
#134=CARTESIAN_POINT('Ctrl Pts',(5.8743223163731,1.0794642663628,-1.39386690010716));
#135=CARTESIAN_POINT('Ctrl Pts',(5.79570955989363,0.887615038087952,-1.52579865469255));
#136=CARTESIAN_POINT('Ctrl Pts',(5.68048307901052,0.461051247947995,-1.70392257924107));
#137=CARTESIAN_POINT('Ctrl Pts',(5.64612052902447,0.225683893421988,-1.75));
#138=CARTESIAN_POINT('Ctrl Pts',(5.64612052902447,-0.225683893421989,-1.75));
#139=CARTESIAN_POINT('Ctrl Pts',(5.68048307901052,-0.461051247947996,-1.70392257924107));
#140=CARTESIAN_POINT('Ctrl Pts',(5.79570955989363,-0.887615038087953,-1.52579865469255));
#141=CARTESIAN_POINT('Ctrl Pts',(5.8743223163731,-1.0794642663628,-1.39386690010716));
#142=CARTESIAN_POINT('Ctrl Pts',(6.02128049600025,-1.38509356044599,-1.09128167965687));
#143=CARTESIAN_POINT('Ctrl Pts',(6.10051039176362,-1.52031851427298,-0.897775146993783));
#144=CARTESIAN_POINT('Ctrl Pts',(6.22445654346176,-1.70290789844383,-0.466340497797693));
#145=CARTESIAN_POINT('Ctrl Pts',(6.26834426191402,-1.75,-0.228059611482639));
#146=CARTESIAN_POINT('Ctrl Pts',(6.30471924187691,-1.75,0.220275536290444));
#147=CARTESIAN_POINT('Ctrl Pts',(6.30071727608618,-1.70576140323915,0.454867188694557));
#148=CARTESIAN_POINT('Ctrl Pts',(6.25282511836411,-1.52788510663136,0.884360293551216));
#149=CARTESIAN_POINT('Ctrl Pts',(6.20991880405038,-1.39437848243728,1.07942515328194));
#150=CARTESIAN_POINT('Ctrl Pts',(6.12241988079345,-1.0871271948843,1.38880025612738));
#151=CARTESIAN_POINT('Ctrl Pts',(6.07170905844937,-0.891534880521605,1.52393625657074));
#152=CARTESIAN_POINT('Ctrl Pts',(5.99720995942271,-0.45999404373222,1.70458810711464));
#153=CARTESIAN_POINT('Ctrl Pts',(5.97508392536575,-0.223716710829947,1.75));
#154=CARTESIAN_POINT('Ctrl Pts',(5.97508392536575,-6.24500451351651E-016,
1.75));
#155=CARTESIAN_POINT('Ctrl Pts',(5.97508392536575,0.223716710829946,1.75));
#156=CARTESIAN_POINT('Ctrl Pts',(5.99720995942271,0.459994043732218,1.70458810711464));
#157=CARTESIAN_POINT('Ctrl Pts',(6.07170905844937,0.891534880521603,1.52393625657074));
#158=CARTESIAN_POINT('Ctrl Pts',(6.12241988079345,1.0871271948843,1.38880025612738));
#159=CARTESIAN_POINT('Ctrl Pts',(6.20991880405038,1.39437848243728,1.07942515328194));
#160=CARTESIAN_POINT('Ctrl Pts',(6.25282511836411,1.52788510663136,0.884360293551215));
#161=CARTESIAN_POINT('Ctrl Pts',(6.30071727608618,1.70576140323914,0.454867188694557));
#162=CARTESIAN_POINT('Ctrl Pts',(6.30471924187691,1.75,0.220275536290444));
#163=CARTESIAN_POINT('Ctrl Pts',(6.28684752635632,1.75,-6.93889390390723E-017));
#164=CARTESIAN_POINT('Origin',(5.,-4.69324E-016,0.));
#165=CARTESIAN_POINT('',(-5.357653E-016,1.75,0.));
#166=CARTESIAN_POINT('Origin',(-7.000287E-016,6.570805E-032,0.));
#167=CARTESIAN_POINT('Origin',(-2.678826E-016,0.875,0.));
#168=CARTESIAN_POINT('',(0.,0.,0.));
#169=CARTESIAN_POINT($,(0.,0.,0.));
#170=CARTESIAN_POINT($,(16.,5.551115E-016,-3.469447E-017));
#171=UNCERTAINTY_MEASURE_WITH_UNIT(LENGTH_MEASURE(0.01),#177,
'DISTANCE_ACCURACY_VALUE',
'Maximum model space distance between geometric entities at asserted c
onnectivities');
#172=UNCERTAINTY_MEASURE_WITH_UNIT(LENGTH_MEASURE(0.01),#177,
'DISTANCE_ACCURACY_VALUE',
'Maximum model space distance between geometric entities at asserted c
onnectivities');
#173=UNCERTAINTY_MEASURE_WITH_UNIT(LENGTH_MEASURE(0.01),#177,
'DISTANCE_ACCURACY_VALUE',
'Maximum model space distance between geometric entities at asserted c
onnectivities');
#174=(
GEOMETRIC_REPRESENTATION_CONTEXT(3)
GLOBAL_UNCERTAINTY_ASSIGNED_CONTEXT((#171))
GLOBAL_UNIT_ASSIGNED_CONTEXT((#177,#180,#178))
REPRESENTATION_CONTEXT('','3D')
);
#175=(
GEOMETRIC_REPRESENTATION_CONTEXT(3)
GLOBAL_UNCERTAINTY_ASSIGNED_CONTEXT((#172))
GLOBAL_UNIT_ASSIGNED_CONTEXT((#177,#180,#178))
REPRESENTATION_CONTEXT('','3D')
);
#176=(
GEOMETRIC_REPRESENTATION_CONTEXT(3)
GLOBAL_UNCERTAINTY_ASSIGNED_CONTEXT((#173))
GLOBAL_UNIT_ASSIGNED_CONTEXT((#177,#180,#178))
REPRESENTATION_CONTEXT('','3D')
);
#177=(
LENGTH_UNIT()
NAMED_UNIT(*)
SI_UNIT(.MILLI.,.METRE.)
);
#178=(
NAMED_UNIT(*)
SI_UNIT($,.STERADIAN.)
SOLID_ANGLE_UNIT()
);
#179=DIMENSIONAL_EXPONENTS(0.,0.,0.,0.,0.,0.,0.);
#180=(
CONVERSION_BASED_UNIT('degree',#182)
NAMED_UNIT(#179)
PLANE_ANGLE_UNIT()
);
#181=(
NAMED_UNIT(*)
PLANE_ANGLE_UNIT()
SI_UNIT($,.RADIAN.)
);
#182=PLANE_ANGLE_MEASURE_WITH_UNIT(PLANE_ANGLE_MEASURE(0.01745329252),#181);
#183=SHAPE_DEFINITION_REPRESENTATION(#186,#191);
#184=SHAPE_DEFINITION_REPRESENTATION(#187,#192);
#185=SHAPE_DEFINITION_REPRESENTATION(#188,#193);
#186=PRODUCT_DEFINITION_SHAPE('',$,#195);
#187=PRODUCT_DEFINITION_SHAPE('',$,#196);
#188=PRODUCT_DEFINITION_SHAPE('',$,#197);
#189=PRODUCT_DEFINITION_SHAPE($,$,#16);
#190=PRODUCT_DEFINITION_SHAPE($,$,#17);
#191=SHAPE_REPRESENTATION('',(#76),#174);
#192=SHAPE_REPRESENTATION('',(#82),#175);
#193=SHAPE_REPRESENTATION('',(#87,#88,#89),#176);
#194=PRODUCT_DEFINITION_CONTEXT('3D Mechanical Parts',#202,'design');
#195=PRODUCT_DEFINITION('Geh\X\E4use_IB0601A4','Geh\X\E4use_IB0601A4',#198,
#194);
#196=PRODUCT_DEFINITION('Leitung_IB0601A4','Leitung_IB0601A4',#199,#194);
#197=PRODUCT_DEFINITION('IB0602A4','IB0602A4',#200,#194);
#198=PRODUCT_DEFINITION_FORMATION('',$,#204);
#199=PRODUCT_DEFINITION_FORMATION('',$,#205);
#200=PRODUCT_DEFINITION_FORMATION('',$,#206);
#201=APPLICATION_PROTOCOL_DEFINITION('international standard',
'automotive_design',2009,#202);
#202=APPLICATION_CONTEXT(
'Core Data for Automotive Mechanical Design Process');
#203=PRODUCT_CONTEXT('3D Mechanical Parts',#202,'mechanical');
#204=PRODUCT('Geh\X\E4use_IB0601A4','Geh\X\E4use_IB0601A4',$,(#203));
#205=PRODUCT('Leitung_IB0601A4','Leitung_IB0601A4',$,(#203));
#206=PRODUCT('IB0602A4','IB0602A4',$,(#203));
#207=PRESENTATION_STYLE_ASSIGNMENT((#210));
#208=PRESENTATION_STYLE_ASSIGNMENT((#211));
#209=PRESENTATION_STYLE_ASSIGNMENT((#212));
#210=SURFACE_STYLE_USAGE(.BOTH.,#213);
#211=SURFACE_STYLE_USAGE(.BOTH.,#214);
#212=SURFACE_STYLE_USAGE(.BOTH.,#215);
#213=SURFACE_SIDE_STYLE($,(#216));
#214=SURFACE_SIDE_STYLE($,(#217));
#215=SURFACE_SIDE_STYLE($,(#218));
#216=SURFACE_STYLE_FILL_AREA(#219);
#217=SURFACE_STYLE_FILL_AREA(#220);
#218=SURFACE_STYLE_FILL_AREA(#221);
#219=FILL_AREA_STYLE($,(#222));
#220=FILL_AREA_STYLE($,(#223));
#221=FILL_AREA_STYLE($,(#224));
#222=FILL_AREA_STYLE_COLOUR($,#225);
#223=FILL_AREA_STYLE_COLOUR($,#226);
#224=FILL_AREA_STYLE_COLOUR($,#227);
#225=COLOUR_RGB('',0.749019607843137,0.749019607843137,0.749019607843137);
#226=COLOUR_RGB('',0.752941176470588,0.752941176470588,0.752941176470588);
#227=COLOUR_RGB('',0.501960784313725,0.501960784313725,0.501960784313725);
ENDSEC;
END-ISO-10303-21;
