ISO-10303-21;
HEADER;
/* Generated by software containing ST-Developer
 * from STEP Tools, Inc. (www.steptools.com) 
 */

FILE_DESCRIPTION(
/* description */ (''),
/* implementation_level */ '2;1');

FILE_NAME(
/* name */ 
'W:\\PM\\intern\\CAD\\Werkbank\\ay\\ipf_Artikel\\AO000435\\ipf_z3d_AO0
00435.stp',
/* time_stamp */ '2018-08-02T13:57:31+02:00',
/* author */ ('g.aydin'),
/* organization */ (''),
/* preprocessor_version */ 'ST-DEVELOPER v15.2',
/* originating_system */ 'Autodesk Inventor 2014',
/* authorisation */ '');

FILE_SCHEMA (('AUTOMOTIVE_DESIGN { 1 0 10303 214 3 1 1 }'));
ENDSEC;

DATA;
#10=MECHANICAL_DESIGN_GEOMETRIC_PRESENTATION_REPRESENTATION('',(#17,#18),
#444);
#11=SHAPE_REPRESENTATION_RELATIONSHIP('SRR','None',#453,#12);
#12=ADVANCED_BREP_SHAPE_REPRESENTATION($,(#264),#443);
#13=CYLINDRICAL_SURFACE('',#281,1.1);
#14=CYLINDRICAL_SURFACE('',#283,1.1);
#15=CYLINDRICAL_SURFACE('',#285,1.1);
#16=CYLINDRICAL_SURFACE('',#287,1.1);
#17=STYLED_ITEM('',(#462),#252);
#18=STYLED_ITEM('',(#462),#264);
#19=LINE('',#374,#35);
#20=LINE('',#376,#36);
#21=LINE('',#378,#37);
#22=LINE('',#380,#38);
#23=LINE('',#382,#39);
#24=LINE('',#387,#40);
#25=LINE('',#400,#41);
#26=LINE('',#402,#42);
#27=LINE('',#405,#43);
#28=LINE('',#407,#44);
#29=LINE('',#408,#45);
#30=LINE('',#417,#46);
#31=LINE('',#419,#47);
#32=LINE('',#420,#48);
#33=LINE('',#437,#49);
#34=LINE('',#439,#50);
#35=VECTOR('',#302,5.47171431429143);
#36=VECTOR('',#303,3.);
#37=VECTOR('',#304,78.);
#38=VECTOR('',#305,3.);
#39=VECTOR('',#306,5.47171431429143);
#40=VECTOR('',#307,61.3434286285829);
#41=VECTOR('',#318,25.);
#42=VECTOR('',#319,5.47171431429143);
#43=VECTOR('',#322,61.3434286285829);
#44=VECTOR('',#323,5.47171431429144);
#45=VECTOR('',#324,25.);
#46=VECTOR('',#331,3.);
#47=VECTOR('',#332,78.);
#48=VECTOR('',#333,3.);
#49=VECTOR('',#356,25.);
#50=VECTOR('',#359,25.);
#51=PLANE('',#269);
#52=PLANE('',#273);
#53=PLANE('',#278);
#54=PLANE('',#289);
#55=PLANE('',#290);
#56=PLANE('',#291);
#57=FACE_BOUND('',#88,.T.);
#58=FACE_BOUND('',#91,.T.);
#59=FACE_BOUND('',#94,.T.);
#60=FACE_BOUND('',#97,.T.);
#61=FACE_BOUND('',#99,.T.);
#62=FACE_BOUND('',#101,.T.);
#63=FACE_BOUND('',#103,.T.);
#64=FACE_BOUND('',#105,.T.);
#65=FACE_BOUND('',#108,.T.);
#66=FACE_BOUND('',#109,.T.);
#67=FACE_BOUND('',#110,.T.);
#68=FACE_BOUND('',#111,.T.);
#69=FACE_BOUND('',#112,.T.);
#70=(
BOUNDED_CURVE()
B_SPLINE_CURVE(2,(#368,#369,#370),.UNSPECIFIED.,.F.,.F.)
B_SPLINE_CURVE_WITH_KNOTS((3,3),(0.,0.309838667696594),.UNSPECIFIED.)
CURVE()
GEOMETRIC_REPRESENTATION_ITEM()
RATIONAL_B_SPLINE_CURVE((1.,1.42857142857142,1.))
REPRESENTATION_ITEM('')
);
#71=(
BOUNDED_CURVE()
B_SPLINE_CURVE(2,(#384,#385,#386),.UNSPECIFIED.,.F.,.F.)
B_SPLINE_CURVE_WITH_KNOTS((3,3),(0.,0.309838667696594),.UNSPECIFIED.)
CURVE()
GEOMETRIC_REPRESENTATION_ITEM()
RATIONAL_B_SPLINE_CURVE((1.,1.42857142857142,1.))
REPRESENTATION_ITEM('')
);
#72=(
BOUNDED_CURVE()
B_SPLINE_CURVE(2,(#391,#392,#393),.UNSPECIFIED.,.F.,.F.)
B_SPLINE_CURVE_WITH_KNOTS((3,3),(0.,0.309838667696593),.UNSPECIFIED.)
CURVE()
GEOMETRIC_REPRESENTATION_ITEM()
RATIONAL_B_SPLINE_CURVE((1.,1.42857142857143,1.))
REPRESENTATION_ITEM('')
);
#73=(
BOUNDED_CURVE()
B_SPLINE_CURVE(2,(#412,#413,#414),.UNSPECIFIED.,.F.,.F.)
B_SPLINE_CURVE_WITH_KNOTS((3,3),(0.,0.309838667696594),.UNSPECIFIED.)
CURVE()
GEOMETRIC_REPRESENTATION_ITEM()
RATIONAL_B_SPLINE_CURVE((1.,1.42857142857143,1.))
REPRESENTATION_ITEM('')
);
#74=FACE_OUTER_BOUND('',#87,.T.);
#75=FACE_OUTER_BOUND('',#89,.T.);
#76=FACE_OUTER_BOUND('',#90,.T.);
#77=FACE_OUTER_BOUND('',#92,.T.);
#78=FACE_OUTER_BOUND('',#93,.T.);
#79=FACE_OUTER_BOUND('',#95,.T.);
#80=FACE_OUTER_BOUND('',#96,.T.);
#81=FACE_OUTER_BOUND('',#98,.T.);
#82=FACE_OUTER_BOUND('',#100,.T.);
#83=FACE_OUTER_BOUND('',#102,.T.);
#84=FACE_OUTER_BOUND('',#104,.T.);
#85=FACE_OUTER_BOUND('',#106,.T.);
#86=FACE_OUTER_BOUND('',#107,.T.);
#87=EDGE_LOOP('',(#181));
#88=EDGE_LOOP('',(#182,#183));
#89=EDGE_LOOP('',(#184,#185,#186,#187,#188,#189,#190,#191));
#90=EDGE_LOOP('',(#192,#193));
#91=EDGE_LOOP('',(#194));
#92=EDGE_LOOP('',(#195,#196,#197,#198,#199,#200,#201,#202,#203,#204,#205,
#206));
#93=EDGE_LOOP('',(#207));
#94=EDGE_LOOP('',(#208,#209));
#95=EDGE_LOOP('',(#210,#211,#212,#213,#214,#215,#216,#217));
#96=EDGE_LOOP('',(#218,#219));
#97=EDGE_LOOP('',(#220));
#98=EDGE_LOOP('',(#221));
#99=EDGE_LOOP('',(#222));
#100=EDGE_LOOP('',(#223));
#101=EDGE_LOOP('',(#224));
#102=EDGE_LOOP('',(#225));
#103=EDGE_LOOP('',(#226));
#104=EDGE_LOOP('',(#227));
#105=EDGE_LOOP('',(#228));
#106=EDGE_LOOP('',(#229,#230,#231,#232));
#107=EDGE_LOOP('',(#233,#234,#235,#236));
#108=EDGE_LOOP('',(#237));
#109=EDGE_LOOP('',(#238));
#110=EDGE_LOOP('',(#239));
#111=EDGE_LOOP('',(#240));
#112=EDGE_LOOP('',(#241,#242,#243,#244));
#113=CIRCLE('',#267,1.1);
#114=CIRCLE('',#268,2.);
#115=CIRCLE('',#271,2.);
#116=CIRCLE('',#272,1.1);
#117=CIRCLE('',#274,2.);
#118=CIRCLE('',#275,2.);
#119=CIRCLE('',#277,1.1);
#120=CIRCLE('',#280,1.1);
#121=CIRCLE('',#282,1.1);
#122=CIRCLE('',#284,1.1);
#123=CIRCLE('',#286,1.1);
#124=CIRCLE('',#288,1.1);
#125=VERTEX_POINT('',#364);
#126=VERTEX_POINT('',#366);
#127=VERTEX_POINT('',#367);
#128=VERTEX_POINT('',#373);
#129=VERTEX_POINT('',#375);
#130=VERTEX_POINT('',#377);
#131=VERTEX_POINT('',#379);
#132=VERTEX_POINT('',#381);
#133=VERTEX_POINT('',#383);
#134=VERTEX_POINT('',#389);
#135=VERTEX_POINT('',#390);
#136=VERTEX_POINT('',#395);
#137=VERTEX_POINT('',#399);
#138=VERTEX_POINT('',#401);
#139=VERTEX_POINT('',#403);
#140=VERTEX_POINT('',#406);
#141=VERTEX_POINT('',#410);
#142=VERTEX_POINT('',#416);
#143=VERTEX_POINT('',#418);
#144=VERTEX_POINT('',#422);
#145=VERTEX_POINT('',#425);
#146=VERTEX_POINT('',#428);
#147=VERTEX_POINT('',#431);
#148=VERTEX_POINT('',#434);
#149=EDGE_CURVE('',#125,#125,#113,.T.);
#150=EDGE_CURVE('',#126,#127,#70,.T.);
#151=EDGE_CURVE('',#127,#126,#114,.T.);
#152=EDGE_CURVE('',#128,#127,#19,.T.);
#153=EDGE_CURVE('',#129,#128,#20,.T.);
#154=EDGE_CURVE('',#129,#130,#21,.T.);
#155=EDGE_CURVE('',#130,#131,#22,.T.);
#156=EDGE_CURVE('',#132,#131,#23,.T.);
#157=EDGE_CURVE('',#132,#133,#71,.T.);
#158=EDGE_CURVE('',#126,#133,#24,.T.);
#159=EDGE_CURVE('',#134,#135,#72,.T.);
#160=EDGE_CURVE('',#135,#134,#115,.T.);
#161=EDGE_CURVE('',#136,#136,#116,.T.);
#162=EDGE_CURVE('',#133,#132,#117,.T.);
#163=EDGE_CURVE('',#131,#137,#25,.T.);
#164=EDGE_CURVE('',#137,#138,#26,.T.);
#165=EDGE_CURVE('',#138,#139,#118,.T.);
#166=EDGE_CURVE('',#139,#135,#27,.T.);
#167=EDGE_CURVE('',#134,#140,#28,.T.);
#168=EDGE_CURVE('',#140,#128,#29,.T.);
#169=EDGE_CURVE('',#141,#141,#119,.T.);
#170=EDGE_CURVE('',#139,#138,#73,.T.);
#171=EDGE_CURVE('',#142,#137,#30,.T.);
#172=EDGE_CURVE('',#142,#143,#31,.T.);
#173=EDGE_CURVE('',#143,#140,#32,.T.);
#174=EDGE_CURVE('',#144,#144,#120,.T.);
#175=EDGE_CURVE('',#145,#145,#121,.T.);
#176=EDGE_CURVE('',#146,#146,#122,.T.);
#177=EDGE_CURVE('',#147,#147,#123,.T.);
#178=EDGE_CURVE('',#148,#148,#124,.T.);
#179=EDGE_CURVE('',#143,#129,#33,.T.);
#180=EDGE_CURVE('',#130,#142,#34,.T.);
#181=ORIENTED_EDGE('',*,*,#149,.F.);
#182=ORIENTED_EDGE('',*,*,#150,.F.);
#183=ORIENTED_EDGE('',*,*,#151,.F.);
#184=ORIENTED_EDGE('',*,*,#150,.T.);
#185=ORIENTED_EDGE('',*,*,#152,.F.);
#186=ORIENTED_EDGE('',*,*,#153,.F.);
#187=ORIENTED_EDGE('',*,*,#154,.T.);
#188=ORIENTED_EDGE('',*,*,#155,.T.);
#189=ORIENTED_EDGE('',*,*,#156,.F.);
#190=ORIENTED_EDGE('',*,*,#157,.T.);
#191=ORIENTED_EDGE('',*,*,#158,.F.);
#192=ORIENTED_EDGE('',*,*,#159,.F.);
#193=ORIENTED_EDGE('',*,*,#160,.F.);
#194=ORIENTED_EDGE('',*,*,#161,.F.);
#195=ORIENTED_EDGE('',*,*,#151,.T.);
#196=ORIENTED_EDGE('',*,*,#158,.T.);
#197=ORIENTED_EDGE('',*,*,#162,.T.);
#198=ORIENTED_EDGE('',*,*,#156,.T.);
#199=ORIENTED_EDGE('',*,*,#163,.T.);
#200=ORIENTED_EDGE('',*,*,#164,.T.);
#201=ORIENTED_EDGE('',*,*,#165,.T.);
#202=ORIENTED_EDGE('',*,*,#166,.T.);
#203=ORIENTED_EDGE('',*,*,#160,.T.);
#204=ORIENTED_EDGE('',*,*,#167,.T.);
#205=ORIENTED_EDGE('',*,*,#168,.T.);
#206=ORIENTED_EDGE('',*,*,#152,.T.);
#207=ORIENTED_EDGE('',*,*,#169,.F.);
#208=ORIENTED_EDGE('',*,*,#170,.F.);
#209=ORIENTED_EDGE('',*,*,#165,.F.);
#210=ORIENTED_EDGE('',*,*,#159,.T.);
#211=ORIENTED_EDGE('',*,*,#166,.F.);
#212=ORIENTED_EDGE('',*,*,#170,.T.);
#213=ORIENTED_EDGE('',*,*,#164,.F.);
#214=ORIENTED_EDGE('',*,*,#171,.F.);
#215=ORIENTED_EDGE('',*,*,#172,.T.);
#216=ORIENTED_EDGE('',*,*,#173,.T.);
#217=ORIENTED_EDGE('',*,*,#167,.F.);
#218=ORIENTED_EDGE('',*,*,#157,.F.);
#219=ORIENTED_EDGE('',*,*,#162,.F.);
#220=ORIENTED_EDGE('',*,*,#174,.F.);
#221=ORIENTED_EDGE('',*,*,#174,.T.);
#222=ORIENTED_EDGE('',*,*,#175,.F.);
#223=ORIENTED_EDGE('',*,*,#169,.T.);
#224=ORIENTED_EDGE('',*,*,#176,.F.);
#225=ORIENTED_EDGE('',*,*,#149,.T.);
#226=ORIENTED_EDGE('',*,*,#177,.F.);
#227=ORIENTED_EDGE('',*,*,#161,.T.);
#228=ORIENTED_EDGE('',*,*,#178,.F.);
#229=ORIENTED_EDGE('',*,*,#179,.T.);
#230=ORIENTED_EDGE('',*,*,#153,.T.);
#231=ORIENTED_EDGE('',*,*,#168,.F.);
#232=ORIENTED_EDGE('',*,*,#173,.F.);
#233=ORIENTED_EDGE('',*,*,#180,.T.);
#234=ORIENTED_EDGE('',*,*,#171,.T.);
#235=ORIENTED_EDGE('',*,*,#163,.F.);
#236=ORIENTED_EDGE('',*,*,#155,.F.);
#237=ORIENTED_EDGE('',*,*,#175,.T.);
#238=ORIENTED_EDGE('',*,*,#176,.T.);
#239=ORIENTED_EDGE('',*,*,#177,.T.);
#240=ORIENTED_EDGE('',*,*,#178,.T.);
#241=ORIENTED_EDGE('',*,*,#154,.F.);
#242=ORIENTED_EDGE('',*,*,#179,.F.);
#243=ORIENTED_EDGE('',*,*,#172,.F.);
#244=ORIENTED_EDGE('',*,*,#180,.F.);
#245=CONICAL_SURFACE('',#266,1.55,45.);
#246=CONICAL_SURFACE('',#270,1.55,45.);
#247=CONICAL_SURFACE('',#276,1.55,45.);
#248=CONICAL_SURFACE('',#279,1.55,45.);
#249=ADVANCED_FACE('',(#74,#57),#245,.F.);
#250=ADVANCED_FACE('',(#75),#51,.T.);
#251=ADVANCED_FACE('',(#76,#58),#246,.F.);
#252=ADVANCED_FACE('',(#77),#52,.T.);
#253=ADVANCED_FACE('',(#78,#59),#247,.F.);
#254=ADVANCED_FACE('',(#79),#53,.T.);
#255=ADVANCED_FACE('',(#80,#60),#248,.F.);
#256=ADVANCED_FACE('',(#81,#61),#13,.F.);
#257=ADVANCED_FACE('',(#82,#62),#14,.F.);
#258=ADVANCED_FACE('',(#83,#63),#15,.F.);
#259=ADVANCED_FACE('',(#84,#64),#16,.F.);
#260=ADVANCED_FACE('',(#85),#54,.T.);
#261=ADVANCED_FACE('',(#86),#55,.T.);
#262=ADVANCED_FACE('',(#65,#66,#67,#68,#69),#56,.T.);
#263=CLOSED_SHELL('',(#249,#250,#251,#252,#253,#254,#255,#256,#257,#258,
#259,#260,#261,#262));
#264=MANIFOLD_SOLID_BREP('Volumenk\X\F6rper1',#263);
#265=AXIS2_PLACEMENT_3D('placement',#362,#292,#293);
#266=AXIS2_PLACEMENT_3D('',#363,#294,#295);
#267=AXIS2_PLACEMENT_3D('',#365,#296,#297);
#268=AXIS2_PLACEMENT_3D('',#371,#298,#299);
#269=AXIS2_PLACEMENT_3D('',#372,#300,#301);
#270=AXIS2_PLACEMENT_3D('',#388,#308,#309);
#271=AXIS2_PLACEMENT_3D('',#394,#310,#311);
#272=AXIS2_PLACEMENT_3D('',#396,#312,#313);
#273=AXIS2_PLACEMENT_3D('',#397,#314,#315);
#274=AXIS2_PLACEMENT_3D('',#398,#316,#317);
#275=AXIS2_PLACEMENT_3D('',#404,#320,#321);
#276=AXIS2_PLACEMENT_3D('',#409,#325,#326);
#277=AXIS2_PLACEMENT_3D('',#411,#327,#328);
#278=AXIS2_PLACEMENT_3D('',#415,#329,#330);
#279=AXIS2_PLACEMENT_3D('',#421,#334,#335);
#280=AXIS2_PLACEMENT_3D('',#423,#336,#337);
#281=AXIS2_PLACEMENT_3D('',#424,#338,#339);
#282=AXIS2_PLACEMENT_3D('',#426,#340,#341);
#283=AXIS2_PLACEMENT_3D('',#427,#342,#343);
#284=AXIS2_PLACEMENT_3D('',#429,#344,#345);
#285=AXIS2_PLACEMENT_3D('',#430,#346,#347);
#286=AXIS2_PLACEMENT_3D('',#432,#348,#349);
#287=AXIS2_PLACEMENT_3D('',#433,#350,#351);
#288=AXIS2_PLACEMENT_3D('',#435,#352,#353);
#289=AXIS2_PLACEMENT_3D('',#436,#354,#355);
#290=AXIS2_PLACEMENT_3D('',#438,#357,#358);
#291=AXIS2_PLACEMENT_3D('',#440,#360,#361);
#292=DIRECTION('axis',(0.,0.,1.));
#293=DIRECTION('refdir',(1.,0.,0.));
#294=DIRECTION('center_axis',(0.,1.,0.));
#295=DIRECTION('ref_axis',(-1.,0.,0.));
#296=DIRECTION('center_axis',(0.,1.,0.));
#297=DIRECTION('ref_axis',(1.,0.,0.));
#298=DIRECTION('center_axis',(0.,-1.,0.));
#299=DIRECTION('ref_axis',(-1.,0.,0.));
#300=DIRECTION('center_axis',(0.,0.,-1.));
#301=DIRECTION('ref_axis',(-1.,0.,0.));
#302=DIRECTION('',(-1.,0.,0.));
#303=DIRECTION('',(0.,1.,0.));
#304=DIRECTION('',(-1.,0.,0.));
#305=DIRECTION('',(0.,1.,0.));
#306=DIRECTION('',(-1.,0.,0.));
#307=DIRECTION('',(-1.,0.,0.));
#308=DIRECTION('center_axis',(0.,1.,0.));
#309=DIRECTION('ref_axis',(-1.,0.,0.));
#310=DIRECTION('center_axis',(0.,-1.,0.));
#311=DIRECTION('ref_axis',(-1.,0.,0.));
#312=DIRECTION('center_axis',(0.,1.,0.));
#313=DIRECTION('ref_axis',(1.,0.,0.));
#314=DIRECTION('center_axis',(0.,1.,0.));
#315=DIRECTION('ref_axis',(0.,0.,1.));
#316=DIRECTION('center_axis',(0.,-1.,0.));
#317=DIRECTION('ref_axis',(-1.,0.,0.));
#318=DIRECTION('',(-1.77635683940025E-016,0.,1.));
#319=DIRECTION('',(1.,0.,5.69345140833414E-017));
#320=DIRECTION('center_axis',(0.,-1.,0.));
#321=DIRECTION('ref_axis',(-1.,0.,0.));
#322=DIRECTION('',(1.,0.,5.69345140833414E-017));
#323=DIRECTION('',(1.,0.,5.69345140833414E-017));
#324=DIRECTION('',(-1.77635683940025E-016,0.,-1.));
#325=DIRECTION('center_axis',(0.,1.,0.));
#326=DIRECTION('ref_axis',(-1.,0.,0.));
#327=DIRECTION('center_axis',(0.,1.,0.));
#328=DIRECTION('ref_axis',(1.,0.,0.));
#329=DIRECTION('center_axis',(-5.69345140833414E-017,0.,1.));
#330=DIRECTION('ref_axis',(1.,0.,0.));
#331=DIRECTION('',(0.,1.,0.));
#332=DIRECTION('',(1.,0.,5.69345140833414E-017));
#333=DIRECTION('',(0.,1.,0.));
#334=DIRECTION('center_axis',(0.,1.,0.));
#335=DIRECTION('ref_axis',(-1.,0.,0.));
#336=DIRECTION('center_axis',(0.,1.,0.));
#337=DIRECTION('ref_axis',(1.,0.,0.));
#338=DIRECTION('center_axis',(0.,1.,0.));
#339=DIRECTION('ref_axis',(1.,0.,0.));
#340=DIRECTION('center_axis',(0.,1.,0.));
#341=DIRECTION('ref_axis',(1.,0.,0.));
#342=DIRECTION('center_axis',(0.,1.,0.));
#343=DIRECTION('ref_axis',(1.,0.,0.));
#344=DIRECTION('center_axis',(0.,1.,0.));
#345=DIRECTION('ref_axis',(1.,0.,0.));
#346=DIRECTION('center_axis',(0.,1.,0.));
#347=DIRECTION('ref_axis',(1.,0.,0.));
#348=DIRECTION('center_axis',(0.,1.,0.));
#349=DIRECTION('ref_axis',(1.,0.,0.));
#350=DIRECTION('center_axis',(0.,1.,0.));
#351=DIRECTION('ref_axis',(1.,0.,0.));
#352=DIRECTION('center_axis',(0.,1.,0.));
#353=DIRECTION('ref_axis',(1.,0.,0.));
#354=DIRECTION('center_axis',(1.,0.,-1.77635683940025E-016));
#355=DIRECTION('ref_axis',(0.,0.,-1.));
#356=DIRECTION('',(-1.77635683940025E-016,0.,-1.));
#357=DIRECTION('center_axis',(-1.,0.,-1.77635683940025E-016));
#358=DIRECTION('ref_axis',(0.,0.,1.));
#359=DIRECTION('',(-1.77635683940025E-016,0.,1.));
#360=DIRECTION('center_axis',(0.,-1.,0.));
#361=DIRECTION('ref_axis',(0.,0.,-1.));
#362=CARTESIAN_POINT('',(0.,0.,0.));
#363=CARTESIAN_POINT('Origin',(32.1,2.55,-11.1));
#364=CARTESIAN_POINT('',(31.,2.1,-11.1));
#365=CARTESIAN_POINT('Origin',(32.1,2.1,-11.1));
#366=CARTESIAN_POINT('',(30.6717143142914,3.,-12.5));
#367=CARTESIAN_POINT('',(33.5282856857086,3.,-12.5));
#368=CARTESIAN_POINT('Ctrl Pts',(30.6717143142914,3.,-12.5));
#369=CARTESIAN_POINT('Ctrl Pts',(32.1,1.98,-12.5));
#370=CARTESIAN_POINT('Ctrl Pts',(33.5282856857086,3.,-12.5));
#371=CARTESIAN_POINT('Origin',(32.1,3.,-11.1));
#372=CARTESIAN_POINT('Origin',(39.,0.,-12.5));
#373=CARTESIAN_POINT('',(39.,3.,-12.5));
#374=CARTESIAN_POINT('',(39.,3.,-12.5));
#375=CARTESIAN_POINT('',(39.,0.,-12.5));
#376=CARTESIAN_POINT('',(39.,0.,-12.5));
#377=CARTESIAN_POINT('',(-39.,0.,-12.5));
#378=CARTESIAN_POINT('',(39.,0.,-12.5));
#379=CARTESIAN_POINT('',(-39.,3.,-12.5));
#380=CARTESIAN_POINT('',(-39.,0.,-12.5));
#381=CARTESIAN_POINT('',(-33.5282856857086,3.,-12.5));
#382=CARTESIAN_POINT('',(39.,3.,-12.5));
#383=CARTESIAN_POINT('',(-30.6717143142914,3.,-12.5));
#384=CARTESIAN_POINT('Ctrl Pts',(-33.5282856857086,3.,-12.5));
#385=CARTESIAN_POINT('Ctrl Pts',(-32.1,1.98,-12.5));
#386=CARTESIAN_POINT('Ctrl Pts',(-30.6717143142914,3.,-12.5));
#387=CARTESIAN_POINT('',(39.,3.,-12.5));
#388=CARTESIAN_POINT('Origin',(32.1,2.55,11.1));
#389=CARTESIAN_POINT('',(33.5282856857086,3.,12.5));
#390=CARTESIAN_POINT('',(30.6717143142914,3.,12.5));
#391=CARTESIAN_POINT('Ctrl Pts',(33.5282856857086,3.,12.5));
#392=CARTESIAN_POINT('Ctrl Pts',(32.1,1.98,12.5));
#393=CARTESIAN_POINT('Ctrl Pts',(30.6717143142914,3.,12.5));
#394=CARTESIAN_POINT('Origin',(32.1,3.,11.1));
#395=CARTESIAN_POINT('',(31.,2.1,11.1));
#396=CARTESIAN_POINT('Origin',(32.1,2.1,11.1));
#397=CARTESIAN_POINT('Origin',(0.,3.,0.));
#398=CARTESIAN_POINT('Origin',(-32.1,3.,-11.1));
#399=CARTESIAN_POINT('',(-39.,3.,12.5));
#400=CARTESIAN_POINT('',(-39.,3.,-12.5));
#401=CARTESIAN_POINT('',(-33.5282856857086,3.,12.5));
#402=CARTESIAN_POINT('',(-39.,3.,12.5));
#403=CARTESIAN_POINT('',(-30.6717143142914,3.,12.5));
#404=CARTESIAN_POINT('Origin',(-32.1,3.,11.1));
#405=CARTESIAN_POINT('',(-39.,3.,12.5));
#406=CARTESIAN_POINT('',(39.,3.,12.5));
#407=CARTESIAN_POINT('',(-39.,3.,12.5));
#408=CARTESIAN_POINT('',(39.,3.,12.5));
#409=CARTESIAN_POINT('Origin',(-32.1,2.55,11.1));
#410=CARTESIAN_POINT('',(-33.2,2.1,11.1));
#411=CARTESIAN_POINT('Origin',(-32.1,2.1,11.1));
#412=CARTESIAN_POINT('Ctrl Pts',(-30.6717143142914,3.,12.5));
#413=CARTESIAN_POINT('Ctrl Pts',(-32.1,1.98,12.5));
#414=CARTESIAN_POINT('Ctrl Pts',(-33.5282856857086,3.,12.5));
#415=CARTESIAN_POINT('Origin',(-39.,0.,12.5));
#416=CARTESIAN_POINT('',(-39.,0.,12.5));
#417=CARTESIAN_POINT('',(-39.,0.,12.5));
#418=CARTESIAN_POINT('',(39.,0.,12.5));
#419=CARTESIAN_POINT('',(-39.,0.,12.5));
#420=CARTESIAN_POINT('',(39.,0.,12.5));
#421=CARTESIAN_POINT('Origin',(-32.1,2.55,-11.1));
#422=CARTESIAN_POINT('',(-33.2,2.1,-11.1));
#423=CARTESIAN_POINT('Origin',(-32.1,2.1,-11.1));
#424=CARTESIAN_POINT('Origin',(-32.1,0.,-11.1));
#425=CARTESIAN_POINT('',(-33.2,0.,-11.1));
#426=CARTESIAN_POINT('Origin',(-32.1,0.,-11.1));
#427=CARTESIAN_POINT('Origin',(-32.1,0.,11.1));
#428=CARTESIAN_POINT('',(-33.2,0.,11.1));
#429=CARTESIAN_POINT('Origin',(-32.1,0.,11.1));
#430=CARTESIAN_POINT('Origin',(32.1,0.,-11.1));
#431=CARTESIAN_POINT('',(31.,0.,-11.1));
#432=CARTESIAN_POINT('Origin',(32.1,0.,-11.1));
#433=CARTESIAN_POINT('Origin',(32.1,0.,11.1));
#434=CARTESIAN_POINT('',(31.,0.,11.1));
#435=CARTESIAN_POINT('Origin',(32.1,0.,11.1));
#436=CARTESIAN_POINT('Origin',(39.,0.,12.5));
#437=CARTESIAN_POINT('',(39.,0.,12.5));
#438=CARTESIAN_POINT('Origin',(-39.,0.,-12.5));
#439=CARTESIAN_POINT('',(-39.,0.,-12.5));
#440=CARTESIAN_POINT('Origin',(0.,0.,0.));
#441=UNCERTAINTY_MEASURE_WITH_UNIT(LENGTH_MEASURE(0.01),#445,
'DISTANCE_ACCURACY_VALUE',
'Maximum model space distance between geometric entities at asserted c
onnectivities');
#442=UNCERTAINTY_MEASURE_WITH_UNIT(LENGTH_MEASURE(1.E-006),#445,
'DISTANCE_ACCURACY_VALUE',
'Maximum model space distance between geometric entities at asserted c
onnectivities');
#443=(
GEOMETRIC_REPRESENTATION_CONTEXT(3)
GLOBAL_UNCERTAINTY_ASSIGNED_CONTEXT((#441))
GLOBAL_UNIT_ASSIGNED_CONTEXT((#445,#448,#446))
REPRESENTATION_CONTEXT('','3D')
);
#444=(
GEOMETRIC_REPRESENTATION_CONTEXT(3)
GLOBAL_UNCERTAINTY_ASSIGNED_CONTEXT((#442))
GLOBAL_UNIT_ASSIGNED_CONTEXT((#445,#448,#446))
REPRESENTATION_CONTEXT('','3D')
);
#445=(
LENGTH_UNIT()
NAMED_UNIT(*)
SI_UNIT(.MILLI.,.METRE.)
);
#446=(
NAMED_UNIT(*)
SI_UNIT($,.STERADIAN.)
SOLID_ANGLE_UNIT()
);
#447=DIMENSIONAL_EXPONENTS(0.,0.,0.,0.,0.,0.,0.);
#448=(
CONVERSION_BASED_UNIT('degree',#450)
NAMED_UNIT(#447)
PLANE_ANGLE_UNIT()
);
#449=(
NAMED_UNIT(*)
PLANE_ANGLE_UNIT()
SI_UNIT($,.RADIAN.)
);
#450=PLANE_ANGLE_MEASURE_WITH_UNIT(PLANE_ANGLE_MEASURE(0.01745329252),#449);
#451=SHAPE_DEFINITION_REPRESENTATION(#452,#453);
#452=PRODUCT_DEFINITION_SHAPE('',$,#455);
#453=SHAPE_REPRESENTATION('',(#265),#443);
#454=PRODUCT_DEFINITION_CONTEXT('part definition',#459,'design');
#455=PRODUCT_DEFINITION('ipf_z3d_AO000435','ipf_z3d_AO000435',#456,#454);
#456=PRODUCT_DEFINITION_FORMATION('',$,#461);
#457=PRODUCT_RELATED_PRODUCT_CATEGORY('ipf_z3d_AO000435',
'ipf_z3d_AO000435',(#461));
#458=APPLICATION_PROTOCOL_DEFINITION('international standard',
'automotive_design',2009,#459);
#459=APPLICATION_CONTEXT(
'Core Data for Automotive Mechanical Design Process');
#460=PRODUCT_CONTEXT('part definition',#459,'mechanical');
#461=PRODUCT('ipf_z3d_AO000435','ipf_z3d_AO000435',$,(#460));
#462=PRESENTATION_STYLE_ASSIGNMENT((#463));
#463=SURFACE_STYLE_USAGE(.BOTH.,#464);
#464=SURFACE_SIDE_STYLE($,(#465));
#465=SURFACE_STYLE_FILL_AREA(#466);
#466=FILL_AREA_STYLE($,(#467));
#467=FILL_AREA_STYLE_COLOUR($,#468);
#468=COLOUR_RGB('',0.925490196078431,0.945098039215686,0.937254901960784);
ENDSEC;
END-ISO-10303-21;
