ISO-10303-21;
HEADER;
/* Generated by software containing ST-Developer
 * from STEP Tools, Inc. (www.steptools.com) 
 */

FILE_DESCRIPTION(
/* description */ (''),
/* implementation_level */ '2;1');

FILE_NAME(
/* name */ 
'C:\\Users\\mitarbeiter\\Desktop\\3D\\Imported Components\\LT100103\\L
T100103.stp',
/* time_stamp */ '2016-10-06T14:05:29+02:00',
/* author */ ('mitarbeiter'),
/* organization */ (''),
/* preprocessor_version */ 'ST-DEVELOPER v15.2',
/* originating_system */ 'Autodesk Inventor 2014',
/* authorisation */ '');

FILE_SCHEMA (('AUTOMOTIVE_DESIGN { 1 0 10303 214 3 1 1 }'));
ENDSEC;

DATA;
#10=SHAPE_REPRESENTATION_RELATIONSHIP('SRR','None',#295,#11);
#11=ADVANCED_BREP_SHAPE_REPRESENTATION($,(#159),#286);
#12=STYLED_ITEM($,(#303),#159);
#13=PLANE($,#166);
#14=PLANE($,#172);
#15=PLANE($,#175);
#16=PLANE($,#180);
#17=PLANE($,#186);
#18=CYLINDRICAL_SURFACE($,#164,2.1);
#19=CYLINDRICAL_SURFACE($,#170,3.);
#20=CYLINDRICAL_SURFACE($,#182,1.05);
#21=CYLINDRICAL_SURFACE($,#187,0.750000000000002);
#22=FACE_BOUND($,#49,.T.);
#23=FACE_BOUND($,#51,.T.);
#24=FACE_BOUND($,#54,.T.);
#25=FACE_BOUND($,#56,.T.);
#26=FACE_BOUND($,#58,.T.);
#27=FACE_BOUND($,#60,.T.);
#28=FACE_BOUND($,#62,.T.);
#29=FACE_BOUND($,#64,.T.);
#30=FACE_BOUND($,#66,.T.);
#31=FACE_BOUND($,#68,.T.);
#32=FACE_BOUND($,#70,.T.);
#33=FACE_BOUND($,#73,.T.);
#34=FACE_OUTER_BOUND($,#48,.T.);
#35=FACE_OUTER_BOUND($,#50,.T.);
#36=FACE_OUTER_BOUND($,#52,.T.);
#37=FACE_OUTER_BOUND($,#53,.T.);
#38=FACE_OUTER_BOUND($,#55,.T.);
#39=FACE_OUTER_BOUND($,#57,.T.);
#40=FACE_OUTER_BOUND($,#59,.T.);
#41=FACE_OUTER_BOUND($,#61,.T.);
#42=FACE_OUTER_BOUND($,#63,.T.);
#43=FACE_OUTER_BOUND($,#65,.T.);
#44=FACE_OUTER_BOUND($,#67,.T.);
#45=FACE_OUTER_BOUND($,#69,.T.);
#46=FACE_OUTER_BOUND($,#71,.T.);
#47=FACE_OUTER_BOUND($,#72,.T.);
#48=EDGE_LOOP($,(#113));
#49=EDGE_LOOP($,(#114));
#50=EDGE_LOOP($,(#115));
#51=EDGE_LOOP($,(#116));
#52=EDGE_LOOP($,(#117));
#53=EDGE_LOOP($,(#118));
#54=EDGE_LOOP($,(#119));
#55=EDGE_LOOP($,(#120));
#56=EDGE_LOOP($,(#121));
#57=EDGE_LOOP($,(#122));
#58=EDGE_LOOP($,(#123));
#59=EDGE_LOOP($,(#124));
#60=EDGE_LOOP($,(#125));
#61=EDGE_LOOP($,(#126));
#62=EDGE_LOOP($,(#127));
#63=EDGE_LOOP($,(#128));
#64=EDGE_LOOP($,(#129));
#65=EDGE_LOOP($,(#130));
#66=EDGE_LOOP($,(#131));
#67=EDGE_LOOP($,(#132));
#68=EDGE_LOOP($,(#133));
#69=EDGE_LOOP($,(#134));
#70=EDGE_LOOP($,(#135));
#71=EDGE_LOOP($,(#136));
#72=EDGE_LOOP($,(#137));
#73=EDGE_LOOP($,(#138));
#74=CIRCLE($,#162,2.1);
#75=CIRCLE($,#163,2.09);
#76=CIRCLE($,#165,2.1);
#77=CIRCLE($,#168,3.);
#78=CIRCLE($,#169,2.99);
#79=CIRCLE($,#171,3.);
#80=CIRCLE($,#174,2.99);
#81=CIRCLE($,#176,1.05);
#82=CIRCLE($,#178,1.04);
#83=CIRCLE($,#179,1.05);
#84=CIRCLE($,#181,0.750000000000004);
#85=CIRCLE($,#184,0.740000000000002);
#86=CIRCLE($,#185,0.750000000000002);
#87=VERTEX_POINT($,#246);
#88=VERTEX_POINT($,#248);
#89=VERTEX_POINT($,#251);
#90=VERTEX_POINT($,#255);
#91=VERTEX_POINT($,#257);
#92=VERTEX_POINT($,#260);
#93=VERTEX_POINT($,#264);
#94=VERTEX_POINT($,#267);
#95=VERTEX_POINT($,#270);
#96=VERTEX_POINT($,#272);
#97=VERTEX_POINT($,#275);
#98=VERTEX_POINT($,#279);
#99=VERTEX_POINT($,#281);
#100=EDGE_CURVE($,#87,#87,#74,.T.);
#101=EDGE_CURVE($,#88,#88,#75,.T.);
#102=EDGE_CURVE($,#89,#89,#76,.T.);
#103=EDGE_CURVE($,#90,#90,#77,.T.);
#104=EDGE_CURVE($,#91,#91,#78,.T.);
#105=EDGE_CURVE($,#92,#92,#79,.T.);
#106=EDGE_CURVE($,#93,#93,#80,.T.);
#107=EDGE_CURVE($,#94,#94,#81,.T.);
#108=EDGE_CURVE($,#95,#95,#82,.T.);
#109=EDGE_CURVE($,#96,#96,#83,.T.);
#110=EDGE_CURVE($,#97,#97,#84,.T.);
#111=EDGE_CURVE($,#98,#98,#85,.T.);
#112=EDGE_CURVE($,#99,#99,#86,.T.);
#113=ORIENTED_EDGE($,*,*,#100,.T.);
#114=ORIENTED_EDGE($,*,*,#101,.T.);
#115=ORIENTED_EDGE($,*,*,#102,.T.);
#116=ORIENTED_EDGE($,*,*,#100,.F.);
#117=ORIENTED_EDGE($,*,*,#101,.F.);
#118=ORIENTED_EDGE($,*,*,#103,.T.);
#119=ORIENTED_EDGE($,*,*,#104,.T.);
#120=ORIENTED_EDGE($,*,*,#105,.F.);
#121=ORIENTED_EDGE($,*,*,#103,.F.);
#122=ORIENTED_EDGE($,*,*,#104,.F.);
#123=ORIENTED_EDGE($,*,*,#102,.F.);
#124=ORIENTED_EDGE($,*,*,#106,.T.);
#125=ORIENTED_EDGE($,*,*,#105,.T.);
#126=ORIENTED_EDGE($,*,*,#106,.F.);
#127=ORIENTED_EDGE($,*,*,#107,.T.);
#128=ORIENTED_EDGE($,*,*,#108,.T.);
#129=ORIENTED_EDGE($,*,*,#109,.T.);
#130=ORIENTED_EDGE($,*,*,#108,.F.);
#131=ORIENTED_EDGE($,*,*,#110,.T.);
#132=ORIENTED_EDGE($,*,*,#107,.F.);
#133=ORIENTED_EDGE($,*,*,#109,.F.);
#134=ORIENTED_EDGE($,*,*,#111,.T.);
#135=ORIENTED_EDGE($,*,*,#112,.T.);
#136=ORIENTED_EDGE($,*,*,#111,.F.);
#137=ORIENTED_EDGE($,*,*,#110,.F.);
#138=ORIENTED_EDGE($,*,*,#112,.F.);
#139=TOROIDAL_SURFACE($,#161,2.09,0.01);
#140=TOROIDAL_SURFACE($,#167,2.99,0.01);
#141=TOROIDAL_SURFACE($,#173,2.99,0.01);
#142=TOROIDAL_SURFACE($,#177,1.04,0.01);
#143=TOROIDAL_SURFACE($,#183,0.740000000000002,0.01);
#144=ADVANCED_FACE($,(#34,#22),#139,.T.);
#145=ADVANCED_FACE($,(#35,#23),#18,.T.);
#146=ADVANCED_FACE($,(#36),#13,.T.);
#147=ADVANCED_FACE($,(#37,#24),#140,.T.);
#148=ADVANCED_FACE($,(#38,#25),#19,.T.);
#149=ADVANCED_FACE($,(#39,#26),#14,.T.);
#150=ADVANCED_FACE($,(#40,#27),#141,.T.);
#151=ADVANCED_FACE($,(#41,#28),#15,.T.);
#152=ADVANCED_FACE($,(#42,#29),#142,.T.);
#153=ADVANCED_FACE($,(#43,#30),#16,.T.);
#154=ADVANCED_FACE($,(#44,#31),#20,.T.);
#155=ADVANCED_FACE($,(#45,#32),#143,.T.);
#156=ADVANCED_FACE($,(#46),#17,.T.);
#157=ADVANCED_FACE($,(#47,#33),#21,.T.);
#158=CLOSED_SHELL($,(#144,#145,#146,#147,#148,#149,#150,#151,#152,#153,
#154,#155,#156,#157));
#159=MANIFOLD_SOLID_BREP('Volumenk\X\F6rper1',#158);
#160=AXIS2_PLACEMENT_3D('placement',#244,#188,#189);
#161=AXIS2_PLACEMENT_3D($,#245,#190,#191);
#162=AXIS2_PLACEMENT_3D($,#247,#192,#193);
#163=AXIS2_PLACEMENT_3D($,#249,#194,#195);
#164=AXIS2_PLACEMENT_3D($,#250,#196,#197);
#165=AXIS2_PLACEMENT_3D($,#252,#198,#199);
#166=AXIS2_PLACEMENT_3D($,#253,#200,#201);
#167=AXIS2_PLACEMENT_3D($,#254,#202,#203);
#168=AXIS2_PLACEMENT_3D($,#256,#204,#205);
#169=AXIS2_PLACEMENT_3D($,#258,#206,#207);
#170=AXIS2_PLACEMENT_3D($,#259,#208,#209);
#171=AXIS2_PLACEMENT_3D($,#261,#210,#211);
#172=AXIS2_PLACEMENT_3D($,#262,#212,#213);
#173=AXIS2_PLACEMENT_3D($,#263,#214,#215);
#174=AXIS2_PLACEMENT_3D($,#265,#216,#217);
#175=AXIS2_PLACEMENT_3D($,#266,#218,#219);
#176=AXIS2_PLACEMENT_3D($,#268,#220,#221);
#177=AXIS2_PLACEMENT_3D($,#269,#222,#223);
#178=AXIS2_PLACEMENT_3D($,#271,#224,#225);
#179=AXIS2_PLACEMENT_3D($,#273,#226,#227);
#180=AXIS2_PLACEMENT_3D($,#274,#228,#229);
#181=AXIS2_PLACEMENT_3D($,#276,#230,#231);
#182=AXIS2_PLACEMENT_3D($,#277,#232,#233);
#183=AXIS2_PLACEMENT_3D($,#278,#234,#235);
#184=AXIS2_PLACEMENT_3D($,#280,#236,#237);
#185=AXIS2_PLACEMENT_3D($,#282,#238,#239);
#186=AXIS2_PLACEMENT_3D($,#283,#240,#241);
#187=AXIS2_PLACEMENT_3D($,#284,#242,#243);
#188=DIRECTION('axis',(0.,0.,1.));
#189=DIRECTION('refdir',(1.,0.,0.));
#190=DIRECTION('center_axis',(1.,0.,0.));
#191=DIRECTION('ref_axis',(0.,0.,-1.));
#192=DIRECTION('center_axis',(1.,0.,0.));
#193=DIRECTION('ref_axis',(0.,-1.,1.83697019872103E-016));
#194=DIRECTION('center_axis',(-1.,0.,0.));
#195=DIRECTION('ref_axis',(0.,-1.,1.83697019872103E-016));
#196=DIRECTION('center_axis',(1.,0.,0.));
#197=DIRECTION('ref_axis',(0.,1.,0.));
#198=DIRECTION('center_axis',(1.,0.,0.));
#199=DIRECTION('ref_axis',(0.,0.,-1.));
#200=DIRECTION('center_axis',(1.,0.,0.));
#201=DIRECTION('ref_axis',(0.,0.,-1.));
#202=DIRECTION('center_axis',(1.,0.,0.));
#203=DIRECTION('ref_axis',(0.,0.,-1.));
#204=DIRECTION('center_axis',(1.,0.,0.));
#205=DIRECTION('ref_axis',(0.,-1.,1.83697019872103E-016));
#206=DIRECTION('center_axis',(-1.,0.,0.));
#207=DIRECTION('ref_axis',(0.,-1.,1.83697019872103E-016));
#208=DIRECTION('center_axis',(1.,0.,0.));
#209=DIRECTION('ref_axis',(0.,1.,0.));
#210=DIRECTION('center_axis',(-1.,0.,0.));
#211=DIRECTION('ref_axis',(0.,-1.,1.83697019872103E-016));
#212=DIRECTION('center_axis',(1.,0.,0.));
#213=DIRECTION('ref_axis',(0.,0.,-1.));
#214=DIRECTION('center_axis',(1.,0.,0.));
#215=DIRECTION('ref_axis',(0.,0.,-1.));
#216=DIRECTION('center_axis',(1.,0.,0.));
#217=DIRECTION('ref_axis',(0.,-1.,1.83697019872103E-016));
#218=DIRECTION('center_axis',(-1.,0.,0.));
#219=DIRECTION('ref_axis',(0.,0.,1.));
#220=DIRECTION('center_axis',(1.,0.,0.));
#221=DIRECTION('ref_axis',(0.,0.,-1.));
#222=DIRECTION('center_axis',(1.,0.,0.));
#223=DIRECTION('ref_axis',(0.,0.,-1.));
#224=DIRECTION('center_axis',(1.,0.,0.));
#225=DIRECTION('ref_axis',(0.,-1.,1.83697019872103E-016));
#226=DIRECTION('center_axis',(-1.,0.,0.));
#227=DIRECTION('ref_axis',(0.,-1.,1.83697019872103E-016));
#228=DIRECTION('center_axis',(-1.,0.,0.));
#229=DIRECTION('ref_axis',(0.,0.,1.));
#230=DIRECTION('center_axis',(1.,0.,0.));
#231=DIRECTION('ref_axis',(0.,0.,-1.));
#232=DIRECTION('center_axis',(1.,0.,0.));
#233=DIRECTION('ref_axis',(0.,1.,0.));
#234=DIRECTION('center_axis',(1.,0.,0.));
#235=DIRECTION('ref_axis',(0.,0.,-1.));
#236=DIRECTION('center_axis',(1.,0.,0.));
#237=DIRECTION('ref_axis',(0.,-1.,1.83697019872103E-016));
#238=DIRECTION('center_axis',(-1.,0.,0.));
#239=DIRECTION('ref_axis',(0.,-1.,1.83697019872103E-016));
#240=DIRECTION('center_axis',(-1.,0.,0.));
#241=DIRECTION('ref_axis',(0.,0.,1.));
#242=DIRECTION('center_axis',(1.,0.,0.));
#243=DIRECTION('ref_axis',(0.,1.,0.));
#244=CARTESIAN_POINT('',(0.,0.,0.));
#245=CARTESIAN_POINT('Origin',(99.99,0.,0.));
#246=CARTESIAN_POINT('',(99.99,2.1,-1.28587913910472E-016));
#247=CARTESIAN_POINT('Origin',(99.99,0.,0.));
#248=CARTESIAN_POINT('',(100.,2.09,-6.39877952554492E-016));
#249=CARTESIAN_POINT('Origin',(100.,0.,0.));
#250=CARTESIAN_POINT('Origin',(97.5,0.,0.));
#251=CARTESIAN_POINT('',(95.,2.1,0.));
#252=CARTESIAN_POINT('Origin',(95.,0.,0.));
#253=CARTESIAN_POINT('Origin',(100.,0.,0.));
#254=CARTESIAN_POINT('Origin',(94.99,0.,0.));
#255=CARTESIAN_POINT('',(94.99,3.,-1.83697019872103E-016));
#256=CARTESIAN_POINT('Origin',(94.99,0.,0.));
#257=CARTESIAN_POINT('',(95.,2.99,-9.15423482362647E-016));
#258=CARTESIAN_POINT('Origin',(95.,0.,0.));
#259=CARTESIAN_POINT('Origin',(87.5,0.,0.));
#260=CARTESIAN_POINT('',(80.01,3.,-9.18485099360515E-016));
#261=CARTESIAN_POINT('Origin',(80.01,0.,0.));
#262=CARTESIAN_POINT('Origin',(95.,2.1,0.));
#263=CARTESIAN_POINT('Origin',(80.01,0.,0.));
#264=CARTESIAN_POINT('',(80.,2.99,-1.83084696472529E-016));
#265=CARTESIAN_POINT('Origin',(80.,0.,0.));
#266=CARTESIAN_POINT('Origin',(80.,3.,0.));
#267=CARTESIAN_POINT('',(80.,1.05,0.));
#268=CARTESIAN_POINT('Origin',(80.,0.,0.));
#269=CARTESIAN_POINT('Origin',(10.01,0.,0.));
#270=CARTESIAN_POINT('',(10.,1.04,-6.36816335556621E-017));
#271=CARTESIAN_POINT('Origin',(10.,0.,0.));
#272=CARTESIAN_POINT('',(10.01,1.05,-3.21469784776179E-016));
#273=CARTESIAN_POINT('Origin',(10.01,0.,0.));
#274=CARTESIAN_POINT('Origin',(10.,1.05,0.));
#275=CARTESIAN_POINT('',(10.,0.750000000000004,0.));
#276=CARTESIAN_POINT('Origin',(10.,0.,0.));
#277=CARTESIAN_POINT('Origin',(45.1172884757948,0.,0.));
#278=CARTESIAN_POINT('Origin',(0.00999999999999945,0.,0.));
#279=CARTESIAN_POINT('',(-3.20923843055709E-016,0.740000000000002,-4.53119315684522E-017));
#280=CARTESIAN_POINT('Origin',(-3.20923843055709E-016,0.,0.));
#281=CARTESIAN_POINT('',(0.00999999999999945,0.750000000000002,-2.29621274840129E-016));
#282=CARTESIAN_POINT('Origin',(0.00999999999999945,0.,0.));
#283=CARTESIAN_POINT('Origin',(-3.2146978477618E-016,0.75,0.));
#284=CARTESIAN_POINT('Origin',(5.,0.,0.));
#285=UNCERTAINTY_MEASURE_WITH_UNIT(LENGTH_MEASURE(0.01),#287,
'DISTANCE_ACCURACY_VALUE',
'Maximum model space distance between geometric entities at asserted c
onnectivities');
#286=(
GEOMETRIC_REPRESENTATION_CONTEXT(3)
GLOBAL_UNCERTAINTY_ASSIGNED_CONTEXT((#285))
GLOBAL_UNIT_ASSIGNED_CONTEXT((#287,#290,#288))
REPRESENTATION_CONTEXT('','3D')
);
#287=(
LENGTH_UNIT()
NAMED_UNIT(*)
SI_UNIT(.MILLI.,.METRE.)
);
#288=(
NAMED_UNIT(*)
SI_UNIT($,.STERADIAN.)
SOLID_ANGLE_UNIT()
);
#289=DIMENSIONAL_EXPONENTS(0.,0.,0.,0.,0.,0.,0.);
#290=(
CONVERSION_BASED_UNIT('degree',#292)
NAMED_UNIT(#289)
PLANE_ANGLE_UNIT()
);
#291=(
NAMED_UNIT(*)
PLANE_ANGLE_UNIT()
SI_UNIT($,.RADIAN.)
);
#292=PLANE_ANGLE_MEASURE_WITH_UNIT(PLANE_ANGLE_MEASURE(0.01745329252),#291);
#293=SHAPE_DEFINITION_REPRESENTATION(#294,#295);
#294=PRODUCT_DEFINITION_SHAPE('',$,#297);
#295=SHAPE_REPRESENTATION('',(#160),#286);
#296=PRODUCT_DEFINITION_CONTEXT('3D Mechanical Parts',#300,'design');
#297=PRODUCT_DEFINITION('LT100103','LT100103',#298,#296);
#298=PRODUCT_DEFINITION_FORMATION('',$,#302);
#299=APPLICATION_PROTOCOL_DEFINITION('international standard',
'automotive_design',2009,#300);
#300=APPLICATION_CONTEXT(
'Core Data for Automotive Mechanical Design Process');
#301=PRODUCT_CONTEXT('3D Mechanical Parts',#300,'mechanical');
#302=PRODUCT('LT100103','LT100103',$,(#301));
#303=PRESENTATION_STYLE_ASSIGNMENT((#304));
#304=SURFACE_STYLE_USAGE(.BOTH.,#305);
#305=SURFACE_SIDE_STYLE($,(#306));
#306=SURFACE_STYLE_FILL_AREA(#307);
#307=FILL_AREA_STYLE($,(#308));
#308=FILL_AREA_STYLE_COLOUR($,#309);
#309=COLOUR_RGB('',0.749019607843137,0.749019607843137,0.749019607843137);
ENDSEC;
END-ISO-10303-21;
