ISO-10303-21;
HEADER;
/* Generated by software containing ST-Developer
 * from STEP Tools, Inc. (www.steptools.com) 
 */

FILE_DESCRIPTION(
/* description */ (''),
/* implementation_level */ '2;1');

FILE_NAME(
/* name */ 
'C:\\Users\\mitarbeiter\\Desktop\\3D\\Imported Components\\LT208956\\L
T208956.stp',
/* time_stamp */ '2016-10-06T14:36:05+02:00',
/* author */ ('mitarbeiter'),
/* organization */ (''),
/* preprocessor_version */ 'ST-DEVELOPER v15.2',
/* originating_system */ 'Autodesk Inventor 2014',
/* authorisation */ '');

FILE_SCHEMA (('AUTOMOTIVE_DESIGN { 1 0 10303 214 3 1 1 }'));
ENDSEC;

DATA;
#10=SHAPE_REPRESENTATION_RELATIONSHIP('SRR','None',#356,#11);
#11=ADVANCED_BREP_SHAPE_REPRESENTATION($,(#200),#350);
#12=LINE($,#332,#16);
#13=LINE($,#335,#17);
#14=LINE($,#343,#18);
#15=LINE($,#345,#19);
#16=VECTOR($,#274,5.);
#17=VECTOR($,#277,5.);
#18=VECTOR($,#288,5.);
#19=VECTOR($,#291,5.);
#20=CONICAL_SURFACE($,#209,2.,0.785398163397448);
#21=CONICAL_SURFACE($,#211,0.633974596215562,0.523598775598299);
#22=CYLINDRICAL_SURFACE($,#207,2.);
#23=CYLINDRICAL_SURFACE($,#221,0.25000000000248);
#24=CYLINDRICAL_SURFACE($,#227,0.5);
#25=CYLINDRICAL_SURFACE($,#228,0.25000000000248);
#26=CYLINDRICAL_SURFACE($,#229,0.5);
#27=CYLINDRICAL_SURFACE($,#230,1.4);
#28=CYLINDRICAL_SURFACE($,#231,1.5);
#29=PLANE($,#205);
#30=PLANE($,#214);
#31=PLANE($,#220);
#32=PLANE($,#223);
#33=FACE_BOUND($,#56,.T.);
#34=FACE_BOUND($,#58,.T.);
#35=FACE_BOUND($,#60,.T.);
#36=FACE_BOUND($,#62,.T.);
#37=FACE_BOUND($,#64,.T.);
#38=FACE_BOUND($,#66,.T.);
#39=FACE_BOUND($,#74,.T.);
#40=FACE_BOUND($,#76,.T.);
#41=FACE_OUTER_BOUND($,#55,.T.);
#42=FACE_OUTER_BOUND($,#57,.T.);
#43=FACE_OUTER_BOUND($,#59,.T.);
#44=FACE_OUTER_BOUND($,#61,.T.);
#45=FACE_OUTER_BOUND($,#63,.T.);
#46=FACE_OUTER_BOUND($,#65,.T.);
#47=FACE_OUTER_BOUND($,#67,.T.);
#48=FACE_OUTER_BOUND($,#68,.T.);
#49=FACE_OUTER_BOUND($,#69,.T.);
#50=FACE_OUTER_BOUND($,#70,.T.);
#51=FACE_OUTER_BOUND($,#71,.T.);
#52=FACE_OUTER_BOUND($,#72,.T.);
#53=FACE_OUTER_BOUND($,#73,.T.);
#54=FACE_OUTER_BOUND($,#75,.T.);
#55=EDGE_LOOP($,(#129));
#56=EDGE_LOOP($,(#130));
#57=EDGE_LOOP($,(#131));
#58=EDGE_LOOP($,(#132));
#59=EDGE_LOOP($,(#133));
#60=EDGE_LOOP($,(#134));
#61=EDGE_LOOP($,(#135));
#62=EDGE_LOOP($,(#136));
#63=EDGE_LOOP($,(#137));
#64=EDGE_LOOP($,(#138));
#65=EDGE_LOOP($,(#139));
#66=EDGE_LOOP($,(#140,#141,#142,#143));
#67=EDGE_LOOP($,(#144));
#68=EDGE_LOOP($,(#145,#146,#147,#148));
#69=EDGE_LOOP($,(#149,#150,#151,#152));
#70=EDGE_LOOP($,(#153,#154,#155,#156));
#71=EDGE_LOOP($,(#157,#158,#159,#160));
#72=EDGE_LOOP($,(#161,#162,#163,#164));
#73=EDGE_LOOP($,(#165));
#74=EDGE_LOOP($,(#166));
#75=EDGE_LOOP($,(#167));
#76=EDGE_LOOP($,(#168));
#77=CIRCLE($,#203,1.5);
#78=CIRCLE($,#204,1.7);
#79=CIRCLE($,#206,2.);
#80=CIRCLE($,#208,2.);
#81=CIRCLE($,#210,1.4);
#82=CIRCLE($,#212,1.5);
#83=CIRCLE($,#213,0.749444650053486);
#84=CIRCLE($,#215,1.4);
#85=CIRCLE($,#216,0.25000000000248);
#86=CIRCLE($,#217,0.5);
#87=CIRCLE($,#218,0.25000000000248);
#88=CIRCLE($,#219,0.5);
#89=CIRCLE($,#222,0.25000000000248);
#90=CIRCLE($,#224,0.5);
#91=CIRCLE($,#225,0.25000000000248);
#92=CIRCLE($,#226,0.5);
#93=VERTEX_POINT($,#300);
#94=VERTEX_POINT($,#302);
#95=VERTEX_POINT($,#305);
#96=VERTEX_POINT($,#308);
#97=VERTEX_POINT($,#311);
#98=VERTEX_POINT($,#314);
#99=VERTEX_POINT($,#316);
#100=VERTEX_POINT($,#319);
#101=VERTEX_POINT($,#321);
#102=VERTEX_POINT($,#322);
#103=VERTEX_POINT($,#324);
#104=VERTEX_POINT($,#326);
#105=VERTEX_POINT($,#331);
#106=VERTEX_POINT($,#333);
#107=VERTEX_POINT($,#337);
#108=VERTEX_POINT($,#339);
#109=EDGE_CURVE($,#93,#93,#77,.F.);
#110=EDGE_CURVE($,#94,#94,#78,.T.);
#111=EDGE_CURVE($,#95,#95,#79,.T.);
#112=EDGE_CURVE($,#96,#96,#80,.T.);
#113=EDGE_CURVE($,#97,#97,#81,.T.);
#114=EDGE_CURVE($,#98,#98,#82,.T.);
#115=EDGE_CURVE($,#99,#99,#83,.T.);
#116=EDGE_CURVE($,#100,#100,#84,.T.);
#117=EDGE_CURVE($,#101,#102,#85,.T.);
#118=EDGE_CURVE($,#103,#101,#86,.T.);
#119=EDGE_CURVE($,#104,#103,#87,.T.);
#120=EDGE_CURVE($,#102,#104,#88,.T.);
#121=EDGE_CURVE($,#105,#103,#12,.T.);
#122=EDGE_CURVE($,#106,#105,#89,.T.);
#123=EDGE_CURVE($,#106,#104,#13,.T.);
#124=EDGE_CURVE($,#105,#107,#90,.T.);
#125=EDGE_CURVE($,#107,#108,#91,.T.);
#126=EDGE_CURVE($,#108,#106,#92,.T.);
#127=EDGE_CURVE($,#108,#102,#14,.T.);
#128=EDGE_CURVE($,#107,#101,#15,.T.);
#129=ORIENTED_EDGE($,*,*,#109,.F.);
#130=ORIENTED_EDGE($,*,*,#110,.F.);
#131=ORIENTED_EDGE($,*,*,#111,.F.);
#132=ORIENTED_EDGE($,*,*,#110,.T.);
#133=ORIENTED_EDGE($,*,*,#112,.F.);
#134=ORIENTED_EDGE($,*,*,#111,.T.);
#135=ORIENTED_EDGE($,*,*,#113,.F.);
#136=ORIENTED_EDGE($,*,*,#112,.T.);
#137=ORIENTED_EDGE($,*,*,#114,.F.);
#138=ORIENTED_EDGE($,*,*,#115,.T.);
#139=ORIENTED_EDGE($,*,*,#116,.T.);
#140=ORIENTED_EDGE($,*,*,#117,.F.);
#141=ORIENTED_EDGE($,*,*,#118,.F.);
#142=ORIENTED_EDGE($,*,*,#119,.F.);
#143=ORIENTED_EDGE($,*,*,#120,.F.);
#144=ORIENTED_EDGE($,*,*,#115,.F.);
#145=ORIENTED_EDGE($,*,*,#119,.T.);
#146=ORIENTED_EDGE($,*,*,#121,.F.);
#147=ORIENTED_EDGE($,*,*,#122,.F.);
#148=ORIENTED_EDGE($,*,*,#123,.T.);
#149=ORIENTED_EDGE($,*,*,#122,.T.);
#150=ORIENTED_EDGE($,*,*,#124,.T.);
#151=ORIENTED_EDGE($,*,*,#125,.T.);
#152=ORIENTED_EDGE($,*,*,#126,.T.);
#153=ORIENTED_EDGE($,*,*,#120,.T.);
#154=ORIENTED_EDGE($,*,*,#123,.F.);
#155=ORIENTED_EDGE($,*,*,#126,.F.);
#156=ORIENTED_EDGE($,*,*,#127,.T.);
#157=ORIENTED_EDGE($,*,*,#117,.T.);
#158=ORIENTED_EDGE($,*,*,#127,.F.);
#159=ORIENTED_EDGE($,*,*,#125,.F.);
#160=ORIENTED_EDGE($,*,*,#128,.T.);
#161=ORIENTED_EDGE($,*,*,#118,.T.);
#162=ORIENTED_EDGE($,*,*,#128,.F.);
#163=ORIENTED_EDGE($,*,*,#124,.F.);
#164=ORIENTED_EDGE($,*,*,#121,.T.);
#165=ORIENTED_EDGE($,*,*,#116,.F.);
#166=ORIENTED_EDGE($,*,*,#113,.T.);
#167=ORIENTED_EDGE($,*,*,#109,.T.);
#168=ORIENTED_EDGE($,*,*,#114,.T.);
#169=TOROIDAL_SURFACE($,#202,1.7,0.2);
#170=STYLED_ITEM($,(#365),#185);
#171=STYLED_ITEM($,(#365),#186);
#172=STYLED_ITEM($,(#365),#187);
#173=STYLED_ITEM($,(#365),#188);
#174=STYLED_ITEM($,(#365),#189);
#175=STYLED_ITEM($,(#366),#190);
#176=STYLED_ITEM($,(#366),#191);
#177=STYLED_ITEM($,(#365),#192);
#178=STYLED_ITEM($,(#365),#193);
#179=STYLED_ITEM($,(#365),#194);
#180=STYLED_ITEM($,(#365),#195);
#181=STYLED_ITEM($,(#365),#196);
#182=STYLED_ITEM($,(#365),#197);
#183=STYLED_ITEM($,(#365),#198);
#184=STYLED_ITEM($,(#364),#200);
#185=ADVANCED_FACE($,(#41,#33),#169,.F.);
#186=ADVANCED_FACE($,(#42,#34),#29,.F.);
#187=ADVANCED_FACE($,(#43,#35),#22,.T.);
#188=ADVANCED_FACE($,(#44,#36),#20,.T.);
#189=ADVANCED_FACE($,(#45,#37),#21,.T.);
#190=ADVANCED_FACE($,(#46,#38),#30,.F.);
#191=ADVANCED_FACE($,(#47),#31,.F.);
#192=ADVANCED_FACE($,(#48),#23,.F.);
#193=ADVANCED_FACE($,(#49),#32,.F.);
#194=ADVANCED_FACE($,(#50),#24,.T.);
#195=ADVANCED_FACE($,(#51),#25,.F.);
#196=ADVANCED_FACE($,(#52),#26,.T.);
#197=ADVANCED_FACE($,(#53,#39),#27,.T.);
#198=ADVANCED_FACE($,(#54,#40),#28,.T.);
#199=CLOSED_SHELL($,(#185,#186,#187,#188,#189,#190,#191,#192,#193,#194,
#195,#196,#197,#198));
#200=MANIFOLD_SOLID_BREP('LT208956_1',#199);
#201=AXIS2_PLACEMENT_3D('placement',#298,#232,#233);
#202=AXIS2_PLACEMENT_3D($,#299,#234,#235);
#203=AXIS2_PLACEMENT_3D($,#301,#236,#237);
#204=AXIS2_PLACEMENT_3D($,#303,#238,#239);
#205=AXIS2_PLACEMENT_3D($,#304,#240,#241);
#206=AXIS2_PLACEMENT_3D($,#306,#242,#243);
#207=AXIS2_PLACEMENT_3D($,#307,#244,#245);
#208=AXIS2_PLACEMENT_3D($,#309,#246,#247);
#209=AXIS2_PLACEMENT_3D($,#310,#248,#249);
#210=AXIS2_PLACEMENT_3D($,#312,#250,#251);
#211=AXIS2_PLACEMENT_3D($,#313,#252,#253);
#212=AXIS2_PLACEMENT_3D($,#315,#254,#255);
#213=AXIS2_PLACEMENT_3D($,#317,#256,#257);
#214=AXIS2_PLACEMENT_3D($,#318,#258,#259);
#215=AXIS2_PLACEMENT_3D($,#320,#260,#261);
#216=AXIS2_PLACEMENT_3D($,#323,#262,#263);
#217=AXIS2_PLACEMENT_3D($,#325,#264,#265);
#218=AXIS2_PLACEMENT_3D($,#327,#266,#267);
#219=AXIS2_PLACEMENT_3D($,#328,#268,#269);
#220=AXIS2_PLACEMENT_3D($,#329,#270,#271);
#221=AXIS2_PLACEMENT_3D($,#330,#272,#273);
#222=AXIS2_PLACEMENT_3D($,#334,#275,#276);
#223=AXIS2_PLACEMENT_3D($,#336,#278,#279);
#224=AXIS2_PLACEMENT_3D($,#338,#280,#281);
#225=AXIS2_PLACEMENT_3D($,#340,#282,#283);
#226=AXIS2_PLACEMENT_3D($,#341,#284,#285);
#227=AXIS2_PLACEMENT_3D($,#342,#286,#287);
#228=AXIS2_PLACEMENT_3D($,#344,#289,#290);
#229=AXIS2_PLACEMENT_3D($,#346,#292,#293);
#230=AXIS2_PLACEMENT_3D($,#347,#294,#295);
#231=AXIS2_PLACEMENT_3D($,#348,#296,#297);
#232=DIRECTION('axis',(0.,0.,1.));
#233=DIRECTION('refdir',(1.,0.,0.));
#234=DIRECTION('center_axis',(-1.,0.,0.));
#235=DIRECTION('ref_axis',(0.,0.,1.));
#236=DIRECTION('center_axis',(-1.,0.,0.));
#237=DIRECTION('ref_axis',(0.,0.,1.));
#238=DIRECTION('center_axis',(-1.,0.,0.));
#239=DIRECTION('ref_axis',(0.,0.,1.));
#240=DIRECTION('center_axis',(-1.,0.,0.));
#241=DIRECTION('ref_axis',(0.,0.,1.));
#242=DIRECTION('center_axis',(-1.,0.,0.));
#243=DIRECTION('ref_axis',(0.,0.,1.));
#244=DIRECTION('center_axis',(1.,0.,0.));
#245=DIRECTION('ref_axis',(0.,0.,1.));
#246=DIRECTION('center_axis',(-1.,0.,0.));
#247=DIRECTION('ref_axis',(0.,0.,1.));
#248=DIRECTION('center_axis',(1.,0.,0.));
#249=DIRECTION('ref_axis',(0.,0.,-1.));
#250=DIRECTION('center_axis',(-1.,0.,0.));
#251=DIRECTION('ref_axis',(0.,0.,1.));
#252=DIRECTION('center_axis',(-1.,0.,0.));
#253=DIRECTION('ref_axis',(0.,0.,1.));
#254=DIRECTION('center_axis',(-1.,0.,0.));
#255=DIRECTION('ref_axis',(0.,0.,1.));
#256=DIRECTION('center_axis',(-1.,0.,0.));
#257=DIRECTION('ref_axis',(0.,0.,1.));
#258=DIRECTION('center_axis',(1.,0.,0.));
#259=DIRECTION('ref_axis',(0.,0.,-1.));
#260=DIRECTION('center_axis',(-1.,0.,0.));
#261=DIRECTION('ref_axis',(0.,0.,1.));
#262=DIRECTION('center_axis',(1.,-6.12303176911189E-017,0.));
#263=DIRECTION('ref_axis',(6.12303176911189E-017,1.,0.));
#264=DIRECTION('center_axis',(-1.,6.12303176911189E-017,0.));
#265=DIRECTION('ref_axis',(0.,0.,-1.));
#266=DIRECTION('center_axis',(1.,-6.12303176911189E-017,0.));
#267=DIRECTION('ref_axis',(-6.12303176911189E-017,-1.,0.));
#268=DIRECTION('center_axis',(-1.,6.12303176911189E-017,0.));
#269=DIRECTION('ref_axis',(0.,0.,1.));
#270=DIRECTION('center_axis',(-1.,0.,-5.10930273783793E-018));
#271=DIRECTION('ref_axis',(-5.10930273783794E-018,0.,1.));
#272=DIRECTION('center_axis',(-1.,0.,0.));
#273=DIRECTION('ref_axis',(0.,0.,-1.));
#274=DIRECTION($,(1.,0.,0.));
#275=DIRECTION('center_axis',(1.,-6.12303176911189E-017,0.));
#276=DIRECTION('ref_axis',(-6.12303176911189E-017,-1.,0.));
#277=DIRECTION($,(1.,0.,0.));
#278=DIRECTION('center_axis',(1.,-6.12303176911189E-017,0.));
#279=DIRECTION('ref_axis',(0.,1.,0.));
#280=DIRECTION('center_axis',(-1.,6.12303176911189E-017,0.));
#281=DIRECTION('ref_axis',(0.,0.,-1.));
#282=DIRECTION('center_axis',(1.,-6.12303176911189E-017,0.));
#283=DIRECTION('ref_axis',(6.12303176911189E-017,1.,0.));
#284=DIRECTION('center_axis',(-1.,6.12303176911189E-017,0.));
#285=DIRECTION('ref_axis',(0.,0.,1.));
#286=DIRECTION('center_axis',(-1.,0.,0.));
#287=DIRECTION('ref_axis',(0.,0.,-1.));
#288=DIRECTION($,(1.,0.,0.));
#289=DIRECTION('center_axis',(-1.,0.,0.));
#290=DIRECTION('ref_axis',(0.,0.,-1.));
#291=DIRECTION($,(1.,0.,0.));
#292=DIRECTION('center_axis',(-1.,0.,0.));
#293=DIRECTION('ref_axis',(0.,0.,-1.));
#294=DIRECTION('center_axis',(1.,0.,0.));
#295=DIRECTION('ref_axis',(0.,0.,1.));
#296=DIRECTION('center_axis',(1.,0.,0.));
#297=DIRECTION('ref_axis',(0.,0.,1.));
#298=CARTESIAN_POINT('',(0.,0.,0.));
#299=CARTESIAN_POINT('Origin',(-7.8,0.,0.));
#300=CARTESIAN_POINT('',(-7.8,0.,1.5));
#301=CARTESIAN_POINT('Origin',(-7.8,0.,0.));
#302=CARTESIAN_POINT('',(-8.,0.,1.7));
#303=CARTESIAN_POINT('Origin',(-8.,0.,0.));
#304=CARTESIAN_POINT('Origin',(-8.,0.,1.5));
#305=CARTESIAN_POINT('',(-8.,0.,2.));
#306=CARTESIAN_POINT('Origin',(-8.,0.,0.));
#307=CARTESIAN_POINT('Origin',(-20.,0.,0.));
#308=CARTESIAN_POINT('',(-17.4,0.,2.));
#309=CARTESIAN_POINT('Origin',(-17.4,0.,0.));
#310=CARTESIAN_POINT('Origin',(-17.4,0.,0.));
#311=CARTESIAN_POINT('',(-18.,0.,1.4));
#312=CARTESIAN_POINT('Origin',(-18.,0.,0.));
#313=CARTESIAN_POINT('Origin',(0.2,0.,0.));
#314=CARTESIAN_POINT('',(-1.3,0.,1.5));
#315=CARTESIAN_POINT('Origin',(-1.3,0.,0.));
#316=CARTESIAN_POINT('',(1.6534083130404E-015,0.,0.749444650053486));
#317=CARTESIAN_POINT('Origin',(1.6534083130404E-015,0.,0.));
#318=CARTESIAN_POINT('Origin',(-20.,0.,1.4));
#319=CARTESIAN_POINT('',(-20.,0.,1.4));
#320=CARTESIAN_POINT('Origin',(-20.,0.,0.));
#321=CARTESIAN_POINT('',(-20.,0.372677996250951,0.166666666667771));
#322=CARTESIAN_POINT('',(-20.,0.37267799625095,-0.166666666667767));
#323=CARTESIAN_POINT('Origin',(-20.,0.559016994378274,1.7347234759768E-015));
#324=CARTESIAN_POINT('',(-20.,-0.372677996250951,0.166666666667771));
#325=CARTESIAN_POINT('Origin',(-20.,0.,0.5));
#326=CARTESIAN_POINT('',(-20.,-0.37267799625095,-0.166666666667767));
#327=CARTESIAN_POINT('Origin',(-20.,-0.559016994378274,1.7347234759768E-015));
#328=CARTESIAN_POINT('Origin',(-20.,0.,-0.5));
#329=CARTESIAN_POINT('Origin',(1.69527389901666E-015,0.,1.7347234759768E-015));
#330=CARTESIAN_POINT('Origin',(-25.,-0.559016994378274,1.7347234759768E-015));
#331=CARTESIAN_POINT('',(-25.,-0.372677996250951,0.166666666667771));
#332=CARTESIAN_POINT($,(-25.,-0.372677996250951,0.166666666667771));
#333=CARTESIAN_POINT('',(-25.,-0.37267799625095,-0.166666666667767));
#334=CARTESIAN_POINT('Origin',(-25.,-0.559016994378274,1.7347234759768E-015));
#335=CARTESIAN_POINT($,(-25.,-0.37267799625095,-0.166666666667767));
#336=CARTESIAN_POINT('Origin',(-25.,-0.279508497189137,0.25));
#337=CARTESIAN_POINT('',(-25.,0.372677996250951,0.166666666667771));
#338=CARTESIAN_POINT('Origin',(-25.,0.,0.5));
#339=CARTESIAN_POINT('',(-25.,0.37267799625095,-0.166666666667767));
#340=CARTESIAN_POINT('Origin',(-25.,0.559016994378274,1.7347234759768E-015));
#341=CARTESIAN_POINT('Origin',(-25.,0.,-0.5));
#342=CARTESIAN_POINT('Origin',(-25.,0.,-0.5));
#343=CARTESIAN_POINT($,(-25.,0.37267799625095,-0.166666666667767));
#344=CARTESIAN_POINT('Origin',(-25.,0.559016994378274,1.7347234759768E-015));
#345=CARTESIAN_POINT($,(-25.,0.372677996250951,0.166666666667771));
#346=CARTESIAN_POINT('Origin',(-25.,0.,0.5));
#347=CARTESIAN_POINT('Origin',(-20.,0.,0.));
#348=CARTESIAN_POINT('Origin',(-20.,0.,0.));
#349=UNCERTAINTY_MEASURE_WITH_UNIT(LENGTH_MEASURE(0.01),#351,
'DISTANCE_ACCURACY_VALUE',
'Maximum model space distance between geometric entities at asserted c
onnectivities');
#350=(
GEOMETRIC_REPRESENTATION_CONTEXT(3)
GLOBAL_UNCERTAINTY_ASSIGNED_CONTEXT((#349))
GLOBAL_UNIT_ASSIGNED_CONTEXT((#351,#353,#352))
REPRESENTATION_CONTEXT('','3D')
);
#351=(
LENGTH_UNIT()
NAMED_UNIT(*)
SI_UNIT(.MILLI.,.METRE.)
);
#352=(
NAMED_UNIT(*)
SI_UNIT($,.STERADIAN.)
SOLID_ANGLE_UNIT()
);
#353=(
NAMED_UNIT(*)
PLANE_ANGLE_UNIT()
SI_UNIT($,.RADIAN.)
);
#354=SHAPE_DEFINITION_REPRESENTATION(#355,#356);
#355=PRODUCT_DEFINITION_SHAPE('',$,#358);
#356=SHAPE_REPRESENTATION('',(#201),#350);
#357=PRODUCT_DEFINITION_CONTEXT('3D Mechanical Parts',#361,'design');
#358=PRODUCT_DEFINITION('LT208956','LT208956',#359,#357);
#359=PRODUCT_DEFINITION_FORMATION('',$,#363);
#360=APPLICATION_PROTOCOL_DEFINITION('international standard',
'automotive_design',2009,#361);
#361=APPLICATION_CONTEXT(
'Core Data for Automotive Mechanical Design Process');
#362=PRODUCT_CONTEXT('3D Mechanical Parts',#361,'mechanical');
#363=PRODUCT('LT208956','LT208956',$,(#362));
#364=PRESENTATION_STYLE_ASSIGNMENT((#367));
#365=PRESENTATION_STYLE_ASSIGNMENT((#368));
#366=PRESENTATION_STYLE_ASSIGNMENT((#369));
#367=SURFACE_STYLE_USAGE(.BOTH.,#370);
#368=SURFACE_STYLE_USAGE(.BOTH.,#371);
#369=SURFACE_STYLE_USAGE(.BOTH.,#372);
#370=SURFACE_SIDE_STYLE($,(#373));
#371=SURFACE_SIDE_STYLE($,(#374));
#372=SURFACE_SIDE_STYLE($,(#375));
#373=SURFACE_STYLE_FILL_AREA(#376);
#374=SURFACE_STYLE_FILL_AREA(#377);
#375=SURFACE_STYLE_FILL_AREA(#378);
#376=FILL_AREA_STYLE($,(#379));
#377=FILL_AREA_STYLE($,(#380));
#378=FILL_AREA_STYLE($,(#381));
#379=FILL_AREA_STYLE_COLOUR($,#382);
#380=FILL_AREA_STYLE_COLOUR($,#383);
#381=FILL_AREA_STYLE_COLOUR($,#384);
#382=COLOUR_RGB('',0.749019607843137,0.749019607843137,0.749019607843137);
#383=COLOUR_RGB('',0.733333333333333,0.733333333333333,0.733333333333333);
#384=COLOUR_RGB('',0.752941176470588,0.752941176470588,0.752941176470588);
ENDSEC;
END-ISO-10303-21;
