ISO-10303-21;
HEADER;
/* Generated by software containing ST-Developer
 * from STEP Tools, Inc. (www.steptools.com) 
 */

FILE_DESCRIPTION(
/* description */ (''),
/* implementation_level */ '2;1');

FILE_NAME(
/* name */ 
'C:\\Users\\mitarbeiter\\Desktop\\3D\\Imported Components\\OTR40100\\O
TR40100.stp',
/* time_stamp */ '2016-10-10T13:42:48+02:00',
/* author */ ('mitarbeiter'),
/* organization */ (''),
/* preprocessor_version */ 'ST-DEVELOPER v15.2',
/* originating_system */ 'Autodesk Inventor 2014',
/* authorisation */ '');

FILE_SCHEMA (('AUTOMOTIVE_DESIGN { 1 0 10303 214 3 1 1 }'));
ENDSEC;

DATA;
#10=SHAPE_REPRESENTATION_RELATIONSHIP('SRR','None',#418,#11);
#11=ADVANCED_BREP_SHAPE_REPRESENTATION($,(#182),#409);
#12=STYLED_ITEM($,(#427),#182);
#13=LINE($,#358,#14);
#14=VECTOR($,#248,3.5);
#15=PLANE($,#199);
#16=PLANE($,#206);
#17=PLANE($,#207);
#18=B_SPLINE_CURVE_WITH_KNOTS($,3,(#272,#273,#274,#275,#276,#277,#278,#279,
#280,#281,#282,#283,#284,#285,#286,#287,#288,#289,#290,#291,#292,#293,#294,
#295,#296,#297,#298,#299,#300,#301,#302,#303,#304,#305),.UNSPECIFIED.,.T.,
 .F.,(4,2,2,2,2,2,2,2,2,2,2,2,2,2,2,2,4),(-0.425819055727251,-0.399197773246467,
-0.372576490765682,-0.34597039128056,-0.319364291795438,-0.292758192310316,
-0.266152092825194,-0.23953081034441,-0.212909527863626,-0.186288245382841,
-0.159666962902057,-0.133060863416935,-0.106454763931813,-0.0798486644466908,
-0.0532425649615689,-0.0266212824807844,0.),.UNSPECIFIED.);
#19=B_SPLINE_CURVE_WITH_KNOTS($,3,(#325,#326,#327,#328,#329,#330,#331,#332,
#333,#334,#335,#336,#337,#338,#339,#340),.UNSPECIFIED.,.F.,.F.,(4,2,2,2,
2,2,2,4),(0.,0.108055317943195,0.151947100916298,0.1958388838894,0.23078990078978,
0.26574091769016,0.298756940777365,0.33177296386457),.UNSPECIFIED.);
#20=B_SPLINE_CURVE_WITH_KNOTS($,3,(#342,#343,#344,#345,#346,#347,#348,#349,
#350,#351,#352,#353,#354,#355,#356,#357),.UNSPECIFIED.,.F.,.F.,(4,2,2,2,
2,2,2,4),(0.331705683885395,0.3647217069726,0.397737730059805,0.432688746960185,
0.467639763860566,0.511531546833668,0.55542332980677,0.663478647749965),
 .UNSPECIFIED.);
#21=B_SPLINE_CURVE_WITH_KNOTS($,3,(#362,#363,#364,#365,#366,#367,#368,#369,
#370,#371),.UNSPECIFIED.,.F.,.F.,(4,2,2,2,4),(-0.663478647749965,-0.605265934790884,
-0.547053221831803,-0.507380132835772,-0.467707043839741),.UNSPECIFIED.);
#22=B_SPLINE_CURVE_WITH_KNOTS($,3,(#373,#374,#375,#376,#377,#378,#379,#380,
#381,#382),.UNSPECIFIED.,.F.,.F.,(4,2,2,2,4),(-0.195771603910224,-0.156098514914193,
-0.116425425918162,-0.0582127129590812,0.),.UNSPECIFIED.);
#23=B_SPLINE_CURVE_WITH_KNOTS($,3,(#383,#384,#385,#386,#387,#388,#389,#390,
#391,#392),.UNSPECIFIED.,.F.,.F.,(4,2,2,2,4),(-0.331705683885395,-0.29868966079819,
-0.265673637710985,-0.230722620810605,-0.195771603910224),.UNSPECIFIED.);
#24=B_SPLINE_CURVE_WITH_KNOTS($,3,(#393,#394,#395,#396,#397,#398,#399,#400,
#401,#402),.UNSPECIFIED.,.F.,.F.,(4,2,2,2,4),(-0.467707043839741,-0.432756026939361,
-0.397805010038981,-0.364788986951775,-0.33177296386457),.UNSPECIFIED.);
#25=CYLINDRICAL_SURFACE($,#189,2.);
#26=CYLINDRICAL_SURFACE($,#196,2.);
#27=CYLINDRICAL_SURFACE($,#201,0.7);
#28=CYLINDRICAL_SURFACE($,#202,0.875);
#29=CYLINDRICAL_SURFACE($,#203,0.875);
#30=CYLINDRICAL_SURFACE($,#204,1.75);
#31=CONICAL_SURFACE($,#187,1.9,38.6598082540901);
#32=CONICAL_SURFACE($,#194,1.9,38.6598082540901);
#33=FACE_BOUND($,#59,.T.);
#34=FACE_BOUND($,#61,.T.);
#35=FACE_BOUND($,#63,.T.);
#36=FACE_BOUND($,#64,.T.);
#37=FACE_BOUND($,#66,.T.);
#38=FACE_BOUND($,#68,.T.);
#39=FACE_BOUND($,#70,.T.);
#40=FACE_BOUND($,#72,.T.);
#41=FACE_BOUND($,#75,.T.);
#42=FACE_BOUND($,#79,.T.);
#43=FACE_BOUND($,#82,.T.);
#44=FACE_OUTER_BOUND($,#58,.T.);
#45=FACE_OUTER_BOUND($,#60,.T.);
#46=FACE_OUTER_BOUND($,#62,.T.);
#47=FACE_OUTER_BOUND($,#65,.T.);
#48=FACE_OUTER_BOUND($,#67,.T.);
#49=FACE_OUTER_BOUND($,#69,.T.);
#50=FACE_OUTER_BOUND($,#71,.T.);
#51=FACE_OUTER_BOUND($,#73,.T.);
#52=FACE_OUTER_BOUND($,#74,.T.);
#53=FACE_OUTER_BOUND($,#76,.T.);
#54=FACE_OUTER_BOUND($,#77,.T.);
#55=FACE_OUTER_BOUND($,#78,.T.);
#56=FACE_OUTER_BOUND($,#80,.T.);
#57=FACE_OUTER_BOUND($,#81,.T.);
#58=EDGE_LOOP($,(#128));
#59=EDGE_LOOP($,(#129));
#60=EDGE_LOOP($,(#130));
#61=EDGE_LOOP($,(#131));
#62=EDGE_LOOP($,(#132));
#63=EDGE_LOOP($,(#133));
#64=EDGE_LOOP($,(#134));
#65=EDGE_LOOP($,(#135));
#66=EDGE_LOOP($,(#136));
#67=EDGE_LOOP($,(#137));
#68=EDGE_LOOP($,(#138));
#69=EDGE_LOOP($,(#139));
#70=EDGE_LOOP($,(#140));
#71=EDGE_LOOP($,(#141));
#72=EDGE_LOOP($,(#142));
#73=EDGE_LOOP($,(#143));
#74=EDGE_LOOP($,(#144));
#75=EDGE_LOOP($,(#145));
#76=EDGE_LOOP($,(#146,#147,#148));
#77=EDGE_LOOP($,(#149,#150,#151,#152,#153));
#78=EDGE_LOOP($,(#154,#155,#156,#157,#158,#159));
#79=EDGE_LOOP($,(#160));
#80=EDGE_LOOP($,(#161));
#81=EDGE_LOOP($,(#162));
#82=EDGE_LOOP($,(#163));
#83=CIRCLE($,#185,1.95617376188861);
#84=CIRCLE($,#186,2.);
#85=CIRCLE($,#188,1.89995120760871);
#86=CIRCLE($,#190,2.);
#87=CIRCLE($,#192,1.95617376188861);
#88=CIRCLE($,#193,2.);
#89=CIRCLE($,#195,1.89995120760871);
#90=CIRCLE($,#197,2.);
#91=CIRCLE($,#200,0.7);
#92=CIRCLE($,#205,1.75);
#93=VERTEX_POINT($,#261);
#94=VERTEX_POINT($,#263);
#95=VERTEX_POINT($,#266);
#96=VERTEX_POINT($,#269);
#97=VERTEX_POINT($,#271);
#98=VERTEX_POINT($,#307);
#99=VERTEX_POINT($,#309);
#100=VERTEX_POINT($,#312);
#101=VERTEX_POINT($,#315);
#102=VERTEX_POINT($,#319);
#103=VERTEX_POINT($,#323);
#104=VERTEX_POINT($,#324);
#105=VERTEX_POINT($,#341);
#106=VERTEX_POINT($,#360);
#107=VERTEX_POINT($,#361);
#108=VERTEX_POINT($,#372);
#109=VERTEX_POINT($,#404);
#110=EDGE_CURVE($,#93,#93,#83,.T.);
#111=EDGE_CURVE($,#94,#94,#84,.T.);
#112=EDGE_CURVE($,#95,#95,#85,.T.);
#113=EDGE_CURVE($,#96,#96,#86,.T.);
#114=EDGE_CURVE($,#97,#97,#18,.T.);
#115=EDGE_CURVE($,#98,#98,#87,.T.);
#116=EDGE_CURVE($,#99,#99,#88,.T.);
#117=EDGE_CURVE($,#100,#100,#89,.T.);
#118=EDGE_CURVE($,#101,#101,#90,.T.);
#119=EDGE_CURVE($,#102,#102,#91,.T.);
#120=EDGE_CURVE($,#103,#104,#19,.T.);
#121=EDGE_CURVE($,#105,#103,#20,.T.);
#122=EDGE_CURVE($,#105,#104,#13,.T.);
#123=EDGE_CURVE($,#106,#107,#21,.T.);
#124=EDGE_CURVE($,#108,#106,#22,.T.);
#125=EDGE_CURVE($,#104,#108,#23,.T.);
#126=EDGE_CURVE($,#107,#105,#24,.T.);
#127=EDGE_CURVE($,#109,#109,#92,.T.);
#128=ORIENTED_EDGE($,*,*,#110,.T.);
#129=ORIENTED_EDGE($,*,*,#111,.T.);
#130=ORIENTED_EDGE($,*,*,#112,.F.);
#131=ORIENTED_EDGE($,*,*,#110,.F.);
#132=ORIENTED_EDGE($,*,*,#113,.T.);
#133=ORIENTED_EDGE($,*,*,#114,.T.);
#134=ORIENTED_EDGE($,*,*,#111,.F.);
#135=ORIENTED_EDGE($,*,*,#115,.T.);
#136=ORIENTED_EDGE($,*,*,#116,.T.);
#137=ORIENTED_EDGE($,*,*,#117,.F.);
#138=ORIENTED_EDGE($,*,*,#115,.F.);
#139=ORIENTED_EDGE($,*,*,#118,.F.);
#140=ORIENTED_EDGE($,*,*,#116,.F.);
#141=ORIENTED_EDGE($,*,*,#112,.T.);
#142=ORIENTED_EDGE($,*,*,#117,.T.);
#143=ORIENTED_EDGE($,*,*,#119,.F.);
#144=ORIENTED_EDGE($,*,*,#119,.T.);
#145=ORIENTED_EDGE($,*,*,#114,.F.);
#146=ORIENTED_EDGE($,*,*,#120,.F.);
#147=ORIENTED_EDGE($,*,*,#121,.F.);
#148=ORIENTED_EDGE($,*,*,#122,.T.);
#149=ORIENTED_EDGE($,*,*,#123,.F.);
#150=ORIENTED_EDGE($,*,*,#124,.F.);
#151=ORIENTED_EDGE($,*,*,#125,.F.);
#152=ORIENTED_EDGE($,*,*,#122,.F.);
#153=ORIENTED_EDGE($,*,*,#126,.F.);
#154=ORIENTED_EDGE($,*,*,#126,.T.);
#155=ORIENTED_EDGE($,*,*,#121,.T.);
#156=ORIENTED_EDGE($,*,*,#120,.T.);
#157=ORIENTED_EDGE($,*,*,#125,.T.);
#158=ORIENTED_EDGE($,*,*,#124,.T.);
#159=ORIENTED_EDGE($,*,*,#123,.T.);
#160=ORIENTED_EDGE($,*,*,#127,.F.);
#161=ORIENTED_EDGE($,*,*,#113,.F.);
#162=ORIENTED_EDGE($,*,*,#118,.T.);
#163=ORIENTED_EDGE($,*,*,#127,.T.);
#164=TOROIDAL_SURFACE($,#184,1.8,0.2);
#165=TOROIDAL_SURFACE($,#191,1.8,0.2);
#166=TOROIDAL_SURFACE($,#198,2.05612496949731,0.199999999999999);
#167=ADVANCED_FACE($,(#44,#33),#164,.T.);
#168=ADVANCED_FACE($,(#45,#34),#31,.T.);
#169=ADVANCED_FACE($,(#46,#35,#36),#25,.T.);
#170=ADVANCED_FACE($,(#47,#37),#165,.T.);
#171=ADVANCED_FACE($,(#48,#38),#32,.T.);
#172=ADVANCED_FACE($,(#49,#39),#26,.T.);
#173=ADVANCED_FACE($,(#50,#40),#166,.F.);
#174=ADVANCED_FACE($,(#51),#15,.F.);
#175=ADVANCED_FACE($,(#52,#41),#27,.F.);
#176=ADVANCED_FACE($,(#53),#28,.F.);
#177=ADVANCED_FACE($,(#54),#29,.T.);
#178=ADVANCED_FACE($,(#55,#42),#30,.T.);
#179=ADVANCED_FACE($,(#56),#16,.F.);
#180=ADVANCED_FACE($,(#57,#43),#17,.T.);
#181=CLOSED_SHELL($,(#167,#168,#169,#170,#171,#172,#173,#174,#175,#176,
#177,#178,#179,#180));
#182=MANIFOLD_SOLID_BREP('Volumenk\X\F6rper1',#181);
#183=AXIS2_PLACEMENT_3D('placement',#259,#208,#209);
#184=AXIS2_PLACEMENT_3D($,#260,#210,#211);
#185=AXIS2_PLACEMENT_3D($,#262,#212,#213);
#186=AXIS2_PLACEMENT_3D($,#264,#214,#215);
#187=AXIS2_PLACEMENT_3D($,#265,#216,#217);
#188=AXIS2_PLACEMENT_3D($,#267,#218,#219);
#189=AXIS2_PLACEMENT_3D($,#268,#220,#221);
#190=AXIS2_PLACEMENT_3D($,#270,#222,#223);
#191=AXIS2_PLACEMENT_3D($,#306,#224,#225);
#192=AXIS2_PLACEMENT_3D($,#308,#226,#227);
#193=AXIS2_PLACEMENT_3D($,#310,#228,#229);
#194=AXIS2_PLACEMENT_3D($,#311,#230,#231);
#195=AXIS2_PLACEMENT_3D($,#313,#232,#233);
#196=AXIS2_PLACEMENT_3D($,#314,#234,#235);
#197=AXIS2_PLACEMENT_3D($,#316,#236,#237);
#198=AXIS2_PLACEMENT_3D($,#317,#238,#239);
#199=AXIS2_PLACEMENT_3D($,#318,#240,#241);
#200=AXIS2_PLACEMENT_3D($,#320,#242,#243);
#201=AXIS2_PLACEMENT_3D($,#321,#244,#245);
#202=AXIS2_PLACEMENT_3D($,#322,#246,#247);
#203=AXIS2_PLACEMENT_3D($,#359,#249,#250);
#204=AXIS2_PLACEMENT_3D($,#403,#251,#252);
#205=AXIS2_PLACEMENT_3D($,#405,#253,#254);
#206=AXIS2_PLACEMENT_3D($,#406,#255,#256);
#207=AXIS2_PLACEMENT_3D($,#407,#257,#258);
#208=DIRECTION('axis',(0.,0.,1.));
#209=DIRECTION('refdir',(1.,0.,0.));
#210=DIRECTION('center_axis',(0.,0.,1.));
#211=DIRECTION('ref_axis',(1.,0.,0.));
#212=DIRECTION('center_axis',(0.,0.,1.));
#213=DIRECTION('ref_axis',(-1.,0.,0.));
#214=DIRECTION('center_axis',(0.,0.,-1.));
#215=DIRECTION('ref_axis',(-1.,0.,0.));
#216=DIRECTION('center_axis',(0.,6.123032E-017,1.));
#217=DIRECTION('ref_axis',(1.,0.,0.));
#218=DIRECTION('center_axis',(0.,0.,-1.));
#219=DIRECTION('ref_axis',(-1.,0.,0.));
#220=DIRECTION('center_axis',(0.,0.,1.));
#221=DIRECTION('ref_axis',(-1.,0.,0.));
#222=DIRECTION('center_axis',(0.,0.,-1.));
#223=DIRECTION('ref_axis',(-1.,0.,0.));
#224=DIRECTION('center_axis',(0.,0.,-1.));
#225=DIRECTION('ref_axis',(-1.,0.,0.));
#226=DIRECTION('center_axis',(0.,0.,-1.));
#227=DIRECTION('ref_axis',(-1.,0.,0.));
#228=DIRECTION('center_axis',(0.,0.,1.));
#229=DIRECTION('ref_axis',(-1.,0.,0.));
#230=DIRECTION('center_axis',(0.,-6.123032E-017,-1.));
#231=DIRECTION('ref_axis',(1.,0.,0.));
#232=DIRECTION('center_axis',(0.,0.,1.));
#233=DIRECTION('ref_axis',(-1.,0.,0.));
#234=DIRECTION('center_axis',(0.,0.,1.));
#235=DIRECTION('ref_axis',(-1.,0.,0.));
#236=DIRECTION('center_axis',(0.,0.,-1.));
#237=DIRECTION('ref_axis',(-1.,0.,0.));
#238=DIRECTION('center_axis',(4.86864065962764E-017,-6.75578456857608E-017,
-1.));
#239=DIRECTION('ref_axis',(-1.,0.,0.));
#240=DIRECTION('center_axis',(0.,-1.,0.));
#241=DIRECTION('ref_axis',(0.,0.,-1.));
#242=DIRECTION('center_axis',(0.,-1.,0.));
#243=DIRECTION('ref_axis',(-1.,0.,0.));
#244=DIRECTION('center_axis',(0.,1.,-5.551115E-017));
#245=DIRECTION('ref_axis',(-1.,0.,0.));
#246=DIRECTION('center_axis',(0.,-1.,0.));
#247=DIRECTION('ref_axis',(-1.,0.,0.));
#248=DIRECTION($,(0.,1.,0.));
#249=DIRECTION('center_axis',(0.,-1.,0.));
#250=DIRECTION('ref_axis',(-1.,0.,0.));
#251=DIRECTION('center_axis',(0.,0.,-1.));
#252=DIRECTION('ref_axis',(-1.,0.,0.));
#253=DIRECTION('center_axis',(0.,0.,1.));
#254=DIRECTION('ref_axis',(-1.,0.,0.));
#255=DIRECTION('center_axis',(0.,0.,-1.));
#256=DIRECTION('ref_axis',(-1.,0.,0.));
#257=DIRECTION('center_axis',(0.,0.,-1.));
#258=DIRECTION('ref_axis',(-1.,0.,0.));
#259=CARTESIAN_POINT('',(0.,0.,0.));
#260=CARTESIAN_POINT('Origin',(0.,0.,2.07015621187164));
#261=CARTESIAN_POINT('',(1.95617376188861,2.209064E-016,1.94521720236076));
#262=CARTESIAN_POINT('Origin',(0.,1.700064E-016,1.94521720236076));
#263=CARTESIAN_POINT('',(2.,-2.449213E-016,2.07015621187164));
#264=CARTESIAN_POINT('Origin',(0.,0.,2.07015621187164));
#265=CARTESIAN_POINT('Origin',(0.,1.148068E-016,1.875));
#266=CARTESIAN_POINT('',(1.89995120760871,1.148031E-016,1.87493900951089));
#267=CARTESIAN_POINT('Origin',(0.,3.474723E-016,1.87493900951089));
#268=CARTESIAN_POINT('Origin',(0.,0.,0.));
#269=CARTESIAN_POINT('',(2.,2.449213E-016,35.));
#270=CARTESIAN_POINT('Origin',(0.,0.,35.));
#271=CARTESIAN_POINT('',(-0.7,1.87349939951952,8.49999999999999));
#272=CARTESIAN_POINT('Ctrl Pts',(-0.7,1.87349939951952,8.49999999999999));
#273=CARTESIAN_POINT('Ctrl Pts',(-0.7,1.87349939951952,8.41126239173071));
#274=CARTESIAN_POINT('Ctrl Pts',(-0.682111162294526,1.88046741756686,8.31718367570598));
#275=CARTESIAN_POINT('Ctrl Pts',(-0.610455287338546,1.90493506741198,8.14497622418692));
#276=CARTESIAN_POINT('Ctrl Pts',(-0.556722589462694,1.92200976205471,8.06677309580152));
#277=CARTESIAN_POINT('Ctrl Pts',(-0.43326212103025,1.95354571739741,7.94331262736908));
#278=CARTESIAN_POINT('Ctrl Pts',(-0.355045123122952,1.97015173932049,7.88955290746396));
#279=CARTESIAN_POINT('Ctrl Pts',(-0.18278565522381,1.99352560045667,7.81787676413494));
#280=CARTESIAN_POINT('Ctrl Pts',(-0.08868699828374,2.,7.8));
#281=CARTESIAN_POINT('Ctrl Pts',(0.0886869982837401,2.,7.8));
#282=CARTESIAN_POINT('Ctrl Pts',(0.18278565522381,1.99352560045667,7.81787676413494));
#283=CARTESIAN_POINT('Ctrl Pts',(0.355045123122953,1.97015173932049,7.88955290746396));
#284=CARTESIAN_POINT('Ctrl Pts',(0.43326212103025,1.95354571739741,7.94331262736908));
#285=CARTESIAN_POINT('Ctrl Pts',(0.556722589462694,1.92200976205471,8.06677309580152));
#286=CARTESIAN_POINT('Ctrl Pts',(0.610455287338546,1.90493506741198,8.14497622418692));
#287=CARTESIAN_POINT('Ctrl Pts',(0.682111162294526,1.88046741756686,8.31718367570598));
#288=CARTESIAN_POINT('Ctrl Pts',(0.7,1.87349939951952,8.41126239173071));
#289=CARTESIAN_POINT('Ctrl Pts',(0.7,1.87349939951952,8.58873760826928));
#290=CARTESIAN_POINT('Ctrl Pts',(0.682111162294526,1.88046741756686,8.68281632429401));
#291=CARTESIAN_POINT('Ctrl Pts',(0.610455287338544,1.90493506741198,8.85502377581307));
#292=CARTESIAN_POINT('Ctrl Pts',(0.556722589462695,1.92200976205471,8.93322690419847));
#293=CARTESIAN_POINT('Ctrl Pts',(0.433262121030251,1.95354571739741,9.05668737263091));
#294=CARTESIAN_POINT('Ctrl Pts',(0.355045123122952,1.97015173932049,9.11044709253603));
#295=CARTESIAN_POINT('Ctrl Pts',(0.18278565522381,1.99352560045667,9.18212323586505));
#296=CARTESIAN_POINT('Ctrl Pts',(0.08868699828374,2.,9.2));
#297=CARTESIAN_POINT('Ctrl Pts',(-0.0886869982837398,2.,9.2));
#298=CARTESIAN_POINT('Ctrl Pts',(-0.18278565522381,1.99352560045667,9.18212323586505));
#299=CARTESIAN_POINT('Ctrl Pts',(-0.355045123122952,1.97015173932049,9.11044709253603));
#300=CARTESIAN_POINT('Ctrl Pts',(-0.433262121030251,1.95354571739741,9.05668737263091));
#301=CARTESIAN_POINT('Ctrl Pts',(-0.556722589462695,1.92200976205471,8.93322690419847));
#302=CARTESIAN_POINT('Ctrl Pts',(-0.610455287338544,1.90493506741198,8.85502377581307));
#303=CARTESIAN_POINT('Ctrl Pts',(-0.682111162294526,1.88046741756686,8.68281632429401));
#304=CARTESIAN_POINT('Ctrl Pts',(-0.7,1.87349939951952,8.58873760826928));
#305=CARTESIAN_POINT('Ctrl Pts',(-0.7,1.87349939951952,8.49999999999999));
#306=CARTESIAN_POINT('Origin',(0.,0.,1.42984378812836));
#307=CARTESIAN_POINT('',(1.95617376188861,-2.395003E-016,1.55478279763924));
#308=CARTESIAN_POINT('Origin',(0.,1.67404E-016,1.55478279763924));
#309=CARTESIAN_POINT('',(2.,2.449213E-016,1.42984378812836));
#310=CARTESIAN_POINT('Origin',(0.,0.,1.42984378812836));
#311=CARTESIAN_POINT('Origin',(0.,9.949927E-017,1.625));
#312=CARTESIAN_POINT('',(1.89995120760871,5.648415E-016,1.62506099048912));
#313=CARTESIAN_POINT('Origin',(0.,3.321722E-016,1.62506099048912));
#314=CARTESIAN_POINT('Origin',(0.,0.,0.));
#315=CARTESIAN_POINT('',(2.,2.449213E-016,0.));
#316=CARTESIAN_POINT('Origin',(0.,0.,0.));
#317=CARTESIAN_POINT('Origin',(-2.91433543964104E-015,-1.38777878078145E-015,
1.75));
#318=CARTESIAN_POINT('Origin',(0.,1.7,8.49999999999999));
#319=CARTESIAN_POINT('',(0.7,1.7,8.49999999999999));
#320=CARTESIAN_POINT('Origin',(0.,1.7,8.49999999999999));
#321=CARTESIAN_POINT('Origin',(0.,5.204577E-016,8.49999999999999));
#322=CARTESIAN_POINT('Origin',(0.875,-1.17103E-015,-19.125));
#323=CARTESIAN_POINT('',(1.75,0.,-19.125));
#324=CARTESIAN_POINT('',(0.,1.75,-19.125));
#325=CARTESIAN_POINT('Ctrl Pts',(1.75,0.,-19.125));
#326=CARTESIAN_POINT('Ctrl Pts',(1.75,0.294089325505591,-18.9170474436604));
#327=CARTESIAN_POINT('Ctrl Pts',(1.66014323115571,0.639108782485707,-18.6727063640793));
#328=CARTESIAN_POINT('Ctrl Pts',(1.42611712304827,1.02250938538332,-18.4386802559718));
#329=CARTESIAN_POINT('Ctrl Pts',(1.33724446832306,1.13865928851938,-18.3730459779501));
#330=CARTESIAN_POINT('Ctrl Pts',(1.1251508261404,1.34863028324445,-18.2785194927599));
#331=CARTESIAN_POINT('Ctrl Pts',(1.00170466357366,1.44239148500093,-18.25));
#332=CARTESIAN_POINT('Ctrl Pts',(0.77410510492057,1.57379615145674,-18.25));
#333=CARTESIAN_POINT('Ctrl Pts',(0.659766328696087,1.62493313152394,-18.2687961878477));
#334=CARTESIAN_POINT('Ctrl Pts',(0.441664669124067,1.69724232396319,-18.3558243950894));
#335=CARTESIAN_POINT('Ctrl Pts',(0.338214204313969,1.71900297691975,-18.4243489286096));
#336=CARTESIAN_POINT('Ctrl Pts',(0.178884966796757,1.74259051074285,-18.5836781661268));
#337=CARTESIAN_POINT('Ctrl Pts',(0.111481895929031,1.7470187641182,-18.6819535822465));
#338=CARTESIAN_POINT('Ctrl Pts',(0.022042501207547,1.75043334211133,-18.8975938651091));
#339=CARTESIAN_POINT('Ctrl Pts',(-2.79277325813111E-016,1.75,-19.0149465897093));
#340=CARTESIAN_POINT('Ctrl Pts',(-3.08148791101958E-032,1.75,-19.125));
#341=CARTESIAN_POINT('',(0.,-1.75,-19.125));
#342=CARTESIAN_POINT('Ctrl Pts',(-3.08148791101958E-032,-1.75,-19.125));
#343=CARTESIAN_POINT('Ctrl Pts',(-3.17677958112414E-016,-1.75,-19.0149465897093));
#344=CARTESIAN_POINT('Ctrl Pts',(0.022042501207547,-1.75043334211133,-18.8975938651091));
#345=CARTESIAN_POINT('Ctrl Pts',(0.111481895929031,-1.7470187641182,-18.6819535822465));
#346=CARTESIAN_POINT('Ctrl Pts',(0.178884966796757,-1.74259051074285,-18.5836781661268));
#347=CARTESIAN_POINT('Ctrl Pts',(0.338214204313969,-1.71900297691975,-18.4243489286096));
#348=CARTESIAN_POINT('Ctrl Pts',(0.441664669124067,-1.69724232396319,-18.3558243950894));
#349=CARTESIAN_POINT('Ctrl Pts',(0.659766328696087,-1.62493313152394,-18.2687961878477));
#350=CARTESIAN_POINT('Ctrl Pts',(0.77410510492057,-1.57379615145674,-18.25));
#351=CARTESIAN_POINT('Ctrl Pts',(1.00170466357366,-1.44239148500093,-18.25));
#352=CARTESIAN_POINT('Ctrl Pts',(1.1251508261404,-1.34863028324445,-18.2785194927599));
#353=CARTESIAN_POINT('Ctrl Pts',(1.33724446832306,-1.13865928851938,-18.3730459779501));
#354=CARTESIAN_POINT('Ctrl Pts',(1.42611712304827,-1.02250938538332,-18.4386802559718));
#355=CARTESIAN_POINT('Ctrl Pts',(1.66014323115571,-0.639108782485707,-18.6727063640793));
#356=CARTESIAN_POINT('Ctrl Pts',(1.75,-0.294089325505591,-18.9170474436604));
#357=CARTESIAN_POINT('Ctrl Pts',(1.75,0.,-19.125));
#358=CARTESIAN_POINT($,(0.,-1.75,-19.125));
#359=CARTESIAN_POINT('Origin',(-0.875,-1.17103E-015,-19.125));
#360=CARTESIAN_POINT('',(-1.75,0.,-19.125));
#361=CARTESIAN_POINT('',(-0.875,-1.51554445662277,-20.));
#362=CARTESIAN_POINT('Ctrl Pts',(-1.75,0.,-19.125));
#363=CARTESIAN_POINT('Ctrl Pts',(-1.75,-0.158434936992057,-19.2370304183239));
#364=CARTESIAN_POINT('Ctrl Pts',(-1.72738011435422,-0.330909128496001,-19.359156059776));
#365=CARTESIAN_POINT('Ctrl Pts',(-1.6271786982123,-0.667557282072329,-19.5893358993879));
#366=CARTESIAN_POINT('Ctrl Pts',(-1.5494945373508,-0.831825268005778,-19.6972078495534));
#367=CARTESIAN_POINT('Ctrl Pts',(-1.38599881350172,-1.07499377669936,-19.8407375771768));
#368=CARTESIAN_POINT('Ctrl Pts',(-1.30105975753304,-1.17827091056213,-19.8966898096575));
#369=CARTESIAN_POINT('Ctrl Pts',(-1.10292878686712,-1.36551349036362,-19.9765165801135));
#370=CARTESIAN_POINT('Ctrl Pts',(-0.989526343057213,-1.44942264162938,-20.));
#371=CARTESIAN_POINT('Ctrl Pts',(-0.875000000000001,-1.51554445662277,-20.));
#372=CARTESIAN_POINT('',(-0.875,1.51554445662277,-20.));
#373=CARTESIAN_POINT('Ctrl Pts',(-0.875000000000001,1.51554445662277,-20.));
#374=CARTESIAN_POINT('Ctrl Pts',(-0.989526343057213,1.44942264162938,-20.));
#375=CARTESIAN_POINT('Ctrl Pts',(-1.10292878686712,1.36551349036362,-19.9765165801135));
#376=CARTESIAN_POINT('Ctrl Pts',(-1.30105975753304,1.17827091056213,-19.8966898096575));
#377=CARTESIAN_POINT('Ctrl Pts',(-1.38599881350172,1.07499377669936,-19.8407375771768));
#378=CARTESIAN_POINT('Ctrl Pts',(-1.5494945373508,0.831825268005778,-19.6972078495534));
#379=CARTESIAN_POINT('Ctrl Pts',(-1.6271786982123,0.66755728207233,-19.5893358993879));
#380=CARTESIAN_POINT('Ctrl Pts',(-1.72738011435422,0.330909128496002,-19.359156059776));
#381=CARTESIAN_POINT('Ctrl Pts',(-1.75,0.158434936992056,-19.2370304183239));
#382=CARTESIAN_POINT('Ctrl Pts',(-1.75,0.,-19.125));
#383=CARTESIAN_POINT('Ctrl Pts',(-3.08148791101958E-032,1.75,-19.125));
#384=CARTESIAN_POINT('Ctrl Pts',(-9.16378725324272E-018,1.75,-19.2350534102907));
#385=CARTESIAN_POINT('Ctrl Pts',(-0.0220425012075478,1.75043334211133,-19.3524061348909));
#386=CARTESIAN_POINT('Ctrl Pts',(-0.111481895929033,1.7470187641182,-19.5680464177535));
#387=CARTESIAN_POINT('Ctrl Pts',(-0.178884966796758,1.74259051074285,-19.6663218338732));
#388=CARTESIAN_POINT('Ctrl Pts',(-0.338214204313972,1.71900297691975,-19.8256510713904));
#389=CARTESIAN_POINT('Ctrl Pts',(-0.44166466912407,1.69724232396319,-19.8941756049106));
#390=CARTESIAN_POINT('Ctrl Pts',(-0.65976632869609,1.62493313152394,-19.9812038121523));
#391=CARTESIAN_POINT('Ctrl Pts',(-0.774105104920573,1.57379615145673,-20.));
#392=CARTESIAN_POINT('Ctrl Pts',(-0.875000000000001,1.51554445662277,-20.));
#393=CARTESIAN_POINT('Ctrl Pts',(-0.875000000000001,-1.51554445662277,-20.));
#394=CARTESIAN_POINT('Ctrl Pts',(-0.774105104920573,-1.57379615145673,-20.));
#395=CARTESIAN_POINT('Ctrl Pts',(-0.65976632869609,-1.62493313152394,-19.9812038121523));
#396=CARTESIAN_POINT('Ctrl Pts',(-0.44166466912407,-1.69724232396319,-19.8941756049106));
#397=CARTESIAN_POINT('Ctrl Pts',(-0.338214204313972,-1.71900297691975,-19.8256510713904));
#398=CARTESIAN_POINT('Ctrl Pts',(-0.178884966796758,-1.74259051074285,-19.6663218338732));
#399=CARTESIAN_POINT('Ctrl Pts',(-0.111481895929033,-1.7470187641182,-19.5680464177535));
#400=CARTESIAN_POINT('Ctrl Pts',(-0.0220425012075479,-1.75043334211133,
-19.3524061348909));
#401=CARTESIAN_POINT('Ctrl Pts',(-2.79277325813111E-016,-1.75,-19.2350534102907));
#402=CARTESIAN_POINT('Ctrl Pts',(-3.08148791101958E-032,-1.75,-19.125));
#403=CARTESIAN_POINT('Origin',(0.,0.,0.));
#404=CARTESIAN_POINT('',(1.75,2.143061E-016,0.));
#405=CARTESIAN_POINT('Origin',(0.,0.,0.));
#406=CARTESIAN_POINT('Origin',(0.,0.,35.));
#407=CARTESIAN_POINT('Origin',(0.,0.,0.));
#408=UNCERTAINTY_MEASURE_WITH_UNIT(LENGTH_MEASURE(0.01),#410,
'DISTANCE_ACCURACY_VALUE',
'Maximum model space distance between geometric entities at asserted c
onnectivities');
#409=(
GEOMETRIC_REPRESENTATION_CONTEXT(3)
GLOBAL_UNCERTAINTY_ASSIGNED_CONTEXT((#408))
GLOBAL_UNIT_ASSIGNED_CONTEXT((#410,#413,#411))
REPRESENTATION_CONTEXT('','3D')
);
#410=(
LENGTH_UNIT()
NAMED_UNIT(*)
SI_UNIT(.MILLI.,.METRE.)
);
#411=(
NAMED_UNIT(*)
SI_UNIT($,.STERADIAN.)
SOLID_ANGLE_UNIT()
);
#412=DIMENSIONAL_EXPONENTS(0.,0.,0.,0.,0.,0.,0.);
#413=(
CONVERSION_BASED_UNIT('degree',#415)
NAMED_UNIT(#412)
PLANE_ANGLE_UNIT()
);
#414=(
NAMED_UNIT(*)
PLANE_ANGLE_UNIT()
SI_UNIT($,.RADIAN.)
);
#415=PLANE_ANGLE_MEASURE_WITH_UNIT(PLANE_ANGLE_MEASURE(0.01745329252),#414);
#416=SHAPE_DEFINITION_REPRESENTATION(#417,#418);
#417=PRODUCT_DEFINITION_SHAPE('',$,#420);
#418=SHAPE_REPRESENTATION('',(#183),#409);
#419=PRODUCT_DEFINITION_CONTEXT('3D Mechanical Parts',#423,'design');
#420=PRODUCT_DEFINITION('OTR40100','OTR40100',#421,#419);
#421=PRODUCT_DEFINITION_FORMATION('',$,#425);
#422=APPLICATION_PROTOCOL_DEFINITION('international standard',
'automotive_design',2009,#423);
#423=APPLICATION_CONTEXT(
'Core Data for Automotive Mechanical Design Process');
#424=PRODUCT_CONTEXT('3D Mechanical Parts',#423,'mechanical');
#425=PRODUCT('OTR40100','OTR40100',$,(#424));
#426=PRESENTATION_STYLE_ASSIGNMENT((#428));
#427=PRESENTATION_STYLE_ASSIGNMENT((#429));
#428=SURFACE_STYLE_USAGE(.BOTH.,#430);
#429=SURFACE_STYLE_USAGE(.BOTH.,#431);
#430=SURFACE_SIDE_STYLE($,(#432));
#431=SURFACE_SIDE_STYLE($,(#433));
#432=SURFACE_STYLE_FILL_AREA(#434);
#433=SURFACE_STYLE_FILL_AREA(#435);
#434=FILL_AREA_STYLE($,(#436));
#435=FILL_AREA_STYLE($,(#437));
#436=FILL_AREA_STYLE_COLOUR($,#438);
#437=FILL_AREA_STYLE_COLOUR($,#439);
#438=COLOUR_RGB('',0.749019607843137,0.749019607843137,0.749019607843137);
#439=COLOUR_RGB('',0.752941176470588,0.752941176470588,0.752941176470588);
ENDSEC;
END-ISO-10303-21;
