ISO-10303-21;
HEADER;
/* Generated by software containing ST-Developer
 * from STEP Tools, Inc. (www.steptools.com) 
 */

FILE_DESCRIPTION(
/* description */ (''),
/* implementation_level */ '2;1');

FILE_NAME(
/* name */ 
'C:\\Users\\mitarbeiter\\Desktop\\3D\\Imported Components\\AP000042\\A
P000042.stp',
/* time_stamp */ '2016-09-29T09:00:41+02:00',
/* author */ ('mitarbeiter'),
/* organization */ (''),
/* preprocessor_version */ 'ST-DEVELOPER v15.2',
/* originating_system */ 'Autodesk Inventor 2014',
/* authorisation */ '');

FILE_SCHEMA (('AUTOMOTIVE_DESIGN { 1 0 10303 214 3 1 1 }'));
ENDSEC;

DATA;
#10=SHAPE_REPRESENTATION_RELATIONSHIP('SRR','None',#559,#11);
#11=ADVANCED_BREP_SHAPE_REPRESENTATION($,(#326),#550);
#12=STYLED_ITEM($,(#567),#326);
#13=CONICAL_SURFACE($,#353,3.975,45.);
#14=CONICAL_SURFACE($,#357,3.975,45.);
#15=FACE_BOUND($,#58,.T.);
#16=FACE_BOUND($,#59,.T.);
#17=FACE_BOUND($,#64,.T.);
#18=FACE_BOUND($,#65,.T.);
#19=FACE_BOUND($,#69,.T.);
#20=FACE_BOUND($,#71,.T.);
#21=FACE_BOUND($,#73,.T.);
#22=FACE_BOUND($,#75,.T.);
#23=FACE_BOUND($,#77,.T.);
#24=FACE_BOUND($,#79,.T.);
#25=FACE_BOUND($,#81,.T.);
#26=FACE_BOUND($,#82,.T.);
#27=FACE_BOUND($,#85,.T.);
#28=FACE_BOUND($,#86,.T.);
#29=PLANE($,#331);
#30=PLANE($,#332);
#31=PLANE($,#341);
#32=PLANE($,#342);
#33=PLANE($,#348);
#34=PLANE($,#361);
#35=PLANE($,#362);
#36=PLANE($,#363);
#37=FACE_OUTER_BOUND($,#55,.T.);
#38=FACE_OUTER_BOUND($,#56,.T.);
#39=FACE_OUTER_BOUND($,#57,.T.);
#40=FACE_OUTER_BOUND($,#60,.T.);
#41=FACE_OUTER_BOUND($,#61,.T.);
#42=FACE_OUTER_BOUND($,#62,.T.);
#43=FACE_OUTER_BOUND($,#63,.T.);
#44=FACE_OUTER_BOUND($,#66,.T.);
#45=FACE_OUTER_BOUND($,#67,.T.);
#46=FACE_OUTER_BOUND($,#68,.T.);
#47=FACE_OUTER_BOUND($,#70,.T.);
#48=FACE_OUTER_BOUND($,#72,.T.);
#49=FACE_OUTER_BOUND($,#74,.T.);
#50=FACE_OUTER_BOUND($,#76,.T.);
#51=FACE_OUTER_BOUND($,#78,.T.);
#52=FACE_OUTER_BOUND($,#80,.T.);
#53=FACE_OUTER_BOUND($,#83,.T.);
#54=FACE_OUTER_BOUND($,#84,.T.);
#55=EDGE_LOOP($,(#219,#220,#221,#222));
#56=EDGE_LOOP($,(#223,#224,#225,#226));
#57=EDGE_LOOP($,(#227,#228,#229,#230,#231,#232));
#58=EDGE_LOOP($,(#233));
#59=EDGE_LOOP($,(#234));
#60=EDGE_LOOP($,(#235,#236,#237,#238));
#61=EDGE_LOOP($,(#239,#240,#241,#242));
#62=EDGE_LOOP($,(#243,#244,#245,#246));
#63=EDGE_LOOP($,(#247,#248,#249,#250,#251,#252));
#64=EDGE_LOOP($,(#253));
#65=EDGE_LOOP($,(#254));
#66=EDGE_LOOP($,(#255,#256,#257,#258));
#67=EDGE_LOOP($,(#259,#260,#261,#262,#263,#264));
#68=EDGE_LOOP($,(#265));
#69=EDGE_LOOP($,(#266));
#70=EDGE_LOOP($,(#267));
#71=EDGE_LOOP($,(#268));
#72=EDGE_LOOP($,(#269));
#73=EDGE_LOOP($,(#270));
#74=EDGE_LOOP($,(#271));
#75=EDGE_LOOP($,(#272));
#76=EDGE_LOOP($,(#273));
#77=EDGE_LOOP($,(#274));
#78=EDGE_LOOP($,(#275));
#79=EDGE_LOOP($,(#276));
#80=EDGE_LOOP($,(#277,#278,#279,#280,#281,#282));
#81=EDGE_LOOP($,(#283));
#82=EDGE_LOOP($,(#284));
#83=EDGE_LOOP($,(#285,#286,#287,#288,#289,#290));
#84=EDGE_LOOP($,(#291,#292,#293,#294,#295,#296));
#85=EDGE_LOOP($,(#297));
#86=EDGE_LOOP($,(#298));
#87=LINE($,#466,#109);
#88=LINE($,#469,#110);
#89=LINE($,#472,#111);
#90=LINE($,#474,#112);
#91=LINE($,#475,#113);
#92=LINE($,#478,#114);
#93=LINE($,#480,#115);
#94=LINE($,#482,#116);
#95=LINE($,#491,#117);
#96=LINE($,#497,#118);
#97=LINE($,#500,#119);
#98=LINE($,#503,#120);
#99=LINE($,#505,#121);
#100=LINE($,#506,#122);
#101=LINE($,#509,#123);
#102=LINE($,#511,#124);
#103=LINE($,#513,#125);
#104=LINE($,#522,#126);
#105=LINE($,#524,#127);
#106=LINE($,#525,#128);
#107=LINE($,#545,#129);
#108=LINE($,#547,#130);
#109=VECTOR($,#370,3.);
#110=VECTOR($,#373,3.);
#111=VECTOR($,#376,26.);
#112=VECTOR($,#377,3.);
#113=VECTOR($,#378,26.);
#114=VECTOR($,#381,21.);
#115=VECTOR($,#382,30.);
#116=VECTOR($,#383,21.);
#117=VECTOR($,#394,3.);
#118=VECTOR($,#399,3.);
#119=VECTOR($,#402,3.);
#120=VECTOR($,#405,26.);
#121=VECTOR($,#406,3.);
#122=VECTOR($,#407,26.);
#123=VECTOR($,#410,56.);
#124=VECTOR($,#411,30.);
#125=VECTOR($,#412,56.);
#126=VECTOR($,#423,3.);
#127=VECTOR($,#426,59.);
#128=VECTOR($,#427,18.);
#129=VECTOR($,#454,59.);
#130=VECTOR($,#457,18.);
#131=CIRCLE($,#329,2.);
#132=CIRCLE($,#330,2.);
#133=CIRCLE($,#333,2.);
#134=CIRCLE($,#334,2.75);
#135=CIRCLE($,#335,2.75);
#136=CIRCLE($,#337,2.);
#137=CIRCLE($,#339,2.);
#138=CIRCLE($,#340,2.);
#139=CIRCLE($,#343,2.);
#140=CIRCLE($,#344,1.25);
#141=CIRCLE($,#345,1.25);
#142=CIRCLE($,#347,2.);
#143=CIRCLE($,#350,1.25);
#144=CIRCLE($,#352,1.25);
#145=CIRCLE($,#354,5.2);
#146=CIRCLE($,#355,2.75);
#147=CIRCLE($,#358,5.2);
#148=CIRCLE($,#359,2.75);
#149=VERTEX_POINT($,#462);
#150=VERTEX_POINT($,#463);
#151=VERTEX_POINT($,#465);
#152=VERTEX_POINT($,#467);
#153=VERTEX_POINT($,#471);
#154=VERTEX_POINT($,#473);
#155=VERTEX_POINT($,#477);
#156=VERTEX_POINT($,#479);
#157=VERTEX_POINT($,#481);
#158=VERTEX_POINT($,#484);
#159=VERTEX_POINT($,#486);
#160=VERTEX_POINT($,#489);
#161=VERTEX_POINT($,#493);
#162=VERTEX_POINT($,#494);
#163=VERTEX_POINT($,#496);
#164=VERTEX_POINT($,#498);
#165=VERTEX_POINT($,#502);
#166=VERTEX_POINT($,#504);
#167=VERTEX_POINT($,#508);
#168=VERTEX_POINT($,#510);
#169=VERTEX_POINT($,#512);
#170=VERTEX_POINT($,#515);
#171=VERTEX_POINT($,#517);
#172=VERTEX_POINT($,#520);
#173=VERTEX_POINT($,#527);
#174=VERTEX_POINT($,#530);
#175=VERTEX_POINT($,#533);
#176=VERTEX_POINT($,#535);
#177=VERTEX_POINT($,#539);
#178=VERTEX_POINT($,#541);
#179=EDGE_CURVE($,#149,#150,#131,.T.);
#180=EDGE_CURVE($,#150,#151,#87,.T.);
#181=EDGE_CURVE($,#151,#152,#132,.T.);
#182=EDGE_CURVE($,#152,#149,#88,.T.);
#183=EDGE_CURVE($,#152,#153,#89,.T.);
#184=EDGE_CURVE($,#154,#153,#90,.T.);
#185=EDGE_CURVE($,#149,#154,#91,.T.);
#186=EDGE_CURVE($,#151,#155,#92,.T.);
#187=EDGE_CURVE($,#156,#155,#93,.T.);
#188=EDGE_CURVE($,#157,#156,#94,.T.);
#189=EDGE_CURVE($,#153,#157,#133,.T.);
#190=EDGE_CURVE($,#158,#158,#134,.T.);
#191=EDGE_CURVE($,#159,#159,#135,.T.);
#192=EDGE_CURVE($,#160,#154,#136,.T.);
#193=EDGE_CURVE($,#157,#160,#95,.T.);
#194=EDGE_CURVE($,#161,#162,#137,.T.);
#195=EDGE_CURVE($,#162,#163,#96,.T.);
#196=EDGE_CURVE($,#163,#164,#138,.T.);
#197=EDGE_CURVE($,#164,#161,#97,.T.);
#198=EDGE_CURVE($,#164,#165,#98,.T.);
#199=EDGE_CURVE($,#166,#165,#99,.T.);
#200=EDGE_CURVE($,#161,#166,#100,.T.);
#201=EDGE_CURVE($,#167,#163,#101,.T.);
#202=EDGE_CURVE($,#168,#167,#102,.T.);
#203=EDGE_CURVE($,#169,#168,#103,.T.);
#204=EDGE_CURVE($,#165,#169,#139,.T.);
#205=EDGE_CURVE($,#170,#170,#140,.T.);
#206=EDGE_CURVE($,#171,#171,#141,.T.);
#207=EDGE_CURVE($,#172,#166,#142,.T.);
#208=EDGE_CURVE($,#169,#172,#104,.T.);
#209=EDGE_CURVE($,#172,#156,#105,.T.);
#210=EDGE_CURVE($,#160,#168,#106,.T.);
#211=EDGE_CURVE($,#173,#173,#143,.T.);
#212=EDGE_CURVE($,#174,#174,#144,.T.);
#213=EDGE_CURVE($,#175,#175,#145,.T.);
#214=EDGE_CURVE($,#176,#176,#146,.T.);
#215=EDGE_CURVE($,#177,#177,#147,.T.);
#216=EDGE_CURVE($,#178,#178,#148,.T.);
#217=EDGE_CURVE($,#155,#162,#107,.T.);
#218=EDGE_CURVE($,#167,#150,#108,.T.);
#219=ORIENTED_EDGE($,*,*,#179,.T.);
#220=ORIENTED_EDGE($,*,*,#180,.T.);
#221=ORIENTED_EDGE($,*,*,#181,.T.);
#222=ORIENTED_EDGE($,*,*,#182,.T.);
#223=ORIENTED_EDGE($,*,*,#182,.F.);
#224=ORIENTED_EDGE($,*,*,#183,.T.);
#225=ORIENTED_EDGE($,*,*,#184,.F.);
#226=ORIENTED_EDGE($,*,*,#185,.F.);
#227=ORIENTED_EDGE($,*,*,#181,.F.);
#228=ORIENTED_EDGE($,*,*,#186,.T.);
#229=ORIENTED_EDGE($,*,*,#187,.F.);
#230=ORIENTED_EDGE($,*,*,#188,.F.);
#231=ORIENTED_EDGE($,*,*,#189,.F.);
#232=ORIENTED_EDGE($,*,*,#183,.F.);
#233=ORIENTED_EDGE($,*,*,#190,.T.);
#234=ORIENTED_EDGE($,*,*,#191,.T.);
#235=ORIENTED_EDGE($,*,*,#192,.T.);
#236=ORIENTED_EDGE($,*,*,#184,.T.);
#237=ORIENTED_EDGE($,*,*,#189,.T.);
#238=ORIENTED_EDGE($,*,*,#193,.T.);
#239=ORIENTED_EDGE($,*,*,#194,.T.);
#240=ORIENTED_EDGE($,*,*,#195,.T.);
#241=ORIENTED_EDGE($,*,*,#196,.T.);
#242=ORIENTED_EDGE($,*,*,#197,.T.);
#243=ORIENTED_EDGE($,*,*,#197,.F.);
#244=ORIENTED_EDGE($,*,*,#198,.T.);
#245=ORIENTED_EDGE($,*,*,#199,.F.);
#246=ORIENTED_EDGE($,*,*,#200,.F.);
#247=ORIENTED_EDGE($,*,*,#196,.F.);
#248=ORIENTED_EDGE($,*,*,#201,.F.);
#249=ORIENTED_EDGE($,*,*,#202,.F.);
#250=ORIENTED_EDGE($,*,*,#203,.F.);
#251=ORIENTED_EDGE($,*,*,#204,.F.);
#252=ORIENTED_EDGE($,*,*,#198,.F.);
#253=ORIENTED_EDGE($,*,*,#205,.T.);
#254=ORIENTED_EDGE($,*,*,#206,.T.);
#255=ORIENTED_EDGE($,*,*,#207,.T.);
#256=ORIENTED_EDGE($,*,*,#199,.T.);
#257=ORIENTED_EDGE($,*,*,#204,.T.);
#258=ORIENTED_EDGE($,*,*,#208,.T.);
#259=ORIENTED_EDGE($,*,*,#193,.F.);
#260=ORIENTED_EDGE($,*,*,#188,.T.);
#261=ORIENTED_EDGE($,*,*,#209,.F.);
#262=ORIENTED_EDGE($,*,*,#208,.F.);
#263=ORIENTED_EDGE($,*,*,#203,.T.);
#264=ORIENTED_EDGE($,*,*,#210,.F.);
#265=ORIENTED_EDGE($,*,*,#211,.F.);
#266=ORIENTED_EDGE($,*,*,#205,.F.);
#267=ORIENTED_EDGE($,*,*,#212,.F.);
#268=ORIENTED_EDGE($,*,*,#206,.F.);
#269=ORIENTED_EDGE($,*,*,#213,.F.);
#270=ORIENTED_EDGE($,*,*,#214,.F.);
#271=ORIENTED_EDGE($,*,*,#190,.F.);
#272=ORIENTED_EDGE($,*,*,#214,.T.);
#273=ORIENTED_EDGE($,*,*,#215,.F.);
#274=ORIENTED_EDGE($,*,*,#216,.F.);
#275=ORIENTED_EDGE($,*,*,#191,.F.);
#276=ORIENTED_EDGE($,*,*,#216,.T.);
#277=ORIENTED_EDGE($,*,*,#194,.F.);
#278=ORIENTED_EDGE($,*,*,#200,.T.);
#279=ORIENTED_EDGE($,*,*,#207,.F.);
#280=ORIENTED_EDGE($,*,*,#209,.T.);
#281=ORIENTED_EDGE($,*,*,#187,.T.);
#282=ORIENTED_EDGE($,*,*,#217,.T.);
#283=ORIENTED_EDGE($,*,*,#211,.T.);
#284=ORIENTED_EDGE($,*,*,#212,.T.);
#285=ORIENTED_EDGE($,*,*,#180,.F.);
#286=ORIENTED_EDGE($,*,*,#218,.F.);
#287=ORIENTED_EDGE($,*,*,#201,.T.);
#288=ORIENTED_EDGE($,*,*,#195,.F.);
#289=ORIENTED_EDGE($,*,*,#217,.F.);
#290=ORIENTED_EDGE($,*,*,#186,.F.);
#291=ORIENTED_EDGE($,*,*,#179,.F.);
#292=ORIENTED_EDGE($,*,*,#185,.T.);
#293=ORIENTED_EDGE($,*,*,#192,.F.);
#294=ORIENTED_EDGE($,*,*,#210,.T.);
#295=ORIENTED_EDGE($,*,*,#202,.T.);
#296=ORIENTED_EDGE($,*,*,#218,.T.);
#297=ORIENTED_EDGE($,*,*,#213,.T.);
#298=ORIENTED_EDGE($,*,*,#215,.T.);
#299=CYLINDRICAL_SURFACE($,#328,2.);
#300=CYLINDRICAL_SURFACE($,#336,2.);
#301=CYLINDRICAL_SURFACE($,#338,2.);
#302=CYLINDRICAL_SURFACE($,#346,2.);
#303=CYLINDRICAL_SURFACE($,#349,1.25);
#304=CYLINDRICAL_SURFACE($,#351,1.25);
#305=CYLINDRICAL_SURFACE($,#356,2.75);
#306=CYLINDRICAL_SURFACE($,#360,2.75);
#307=ADVANCED_FACE($,(#37),#299,.T.);
#308=ADVANCED_FACE($,(#38),#29,.T.);
#309=ADVANCED_FACE($,(#39,#15,#16),#30,.F.);
#310=ADVANCED_FACE($,(#40),#300,.T.);
#311=ADVANCED_FACE($,(#41),#301,.T.);
#312=ADVANCED_FACE($,(#42),#31,.T.);
#313=ADVANCED_FACE($,(#43,#17,#18),#32,.T.);
#314=ADVANCED_FACE($,(#44),#302,.T.);
#315=ADVANCED_FACE($,(#45),#33,.T.);
#316=ADVANCED_FACE($,(#46,#19),#303,.F.);
#317=ADVANCED_FACE($,(#47,#20),#304,.F.);
#318=ADVANCED_FACE($,(#48,#21),#13,.F.);
#319=ADVANCED_FACE($,(#49,#22),#305,.F.);
#320=ADVANCED_FACE($,(#50,#23),#14,.F.);
#321=ADVANCED_FACE($,(#51,#24),#306,.F.);
#322=ADVANCED_FACE($,(#52,#25,#26),#34,.F.);
#323=ADVANCED_FACE($,(#53),#35,.T.);
#324=ADVANCED_FACE($,(#54,#27,#28),#36,.T.);
#325=CLOSED_SHELL($,(#307,#308,#309,#310,#311,#312,#313,#314,#315,#316,
#317,#318,#319,#320,#321,#322,#323,#324));
#326=MANIFOLD_SOLID_BREP('Volumenk\X\F6rper1',#325);
#327=AXIS2_PLACEMENT_3D('placement',#460,#364,#365);
#328=AXIS2_PLACEMENT_3D($,#461,#366,#367);
#329=AXIS2_PLACEMENT_3D($,#464,#368,#369);
#330=AXIS2_PLACEMENT_3D($,#468,#371,#372);
#331=AXIS2_PLACEMENT_3D($,#470,#374,#375);
#332=AXIS2_PLACEMENT_3D($,#476,#379,#380);
#333=AXIS2_PLACEMENT_3D($,#483,#384,#385);
#334=AXIS2_PLACEMENT_3D($,#485,#386,#387);
#335=AXIS2_PLACEMENT_3D($,#487,#388,#389);
#336=AXIS2_PLACEMENT_3D($,#488,#390,#391);
#337=AXIS2_PLACEMENT_3D($,#490,#392,#393);
#338=AXIS2_PLACEMENT_3D($,#492,#395,#396);
#339=AXIS2_PLACEMENT_3D($,#495,#397,#398);
#340=AXIS2_PLACEMENT_3D($,#499,#400,#401);
#341=AXIS2_PLACEMENT_3D($,#501,#403,#404);
#342=AXIS2_PLACEMENT_3D($,#507,#408,#409);
#343=AXIS2_PLACEMENT_3D($,#514,#413,#414);
#344=AXIS2_PLACEMENT_3D($,#516,#415,#416);
#345=AXIS2_PLACEMENT_3D($,#518,#417,#418);
#346=AXIS2_PLACEMENT_3D($,#519,#419,#420);
#347=AXIS2_PLACEMENT_3D($,#521,#421,#422);
#348=AXIS2_PLACEMENT_3D($,#523,#424,#425);
#349=AXIS2_PLACEMENT_3D($,#526,#428,#429);
#350=AXIS2_PLACEMENT_3D($,#528,#430,#431);
#351=AXIS2_PLACEMENT_3D($,#529,#432,#433);
#352=AXIS2_PLACEMENT_3D($,#531,#434,#435);
#353=AXIS2_PLACEMENT_3D($,#532,#436,#437);
#354=AXIS2_PLACEMENT_3D($,#534,#438,#439);
#355=AXIS2_PLACEMENT_3D($,#536,#440,#441);
#356=AXIS2_PLACEMENT_3D($,#537,#442,#443);
#357=AXIS2_PLACEMENT_3D($,#538,#444,#445);
#358=AXIS2_PLACEMENT_3D($,#540,#446,#447);
#359=AXIS2_PLACEMENT_3D($,#542,#448,#449);
#360=AXIS2_PLACEMENT_3D($,#543,#450,#451);
#361=AXIS2_PLACEMENT_3D($,#544,#452,#453);
#362=AXIS2_PLACEMENT_3D($,#546,#455,#456);
#363=AXIS2_PLACEMENT_3D($,#548,#458,#459);
#364=DIRECTION('axis',(0.,0.,1.));
#365=DIRECTION('refdir',(1.,0.,0.));
#366=DIRECTION('center_axis',(0.,0.,1.));
#367=DIRECTION('ref_axis',(-0.707106781186548,-0.707106781186548,0.));
#368=DIRECTION('center_axis',(0.,0.,-1.));
#369=DIRECTION('ref_axis',(-0.707106781186548,-0.707106781186548,0.));
#370=DIRECTION($,(0.,0.,-1.));
#371=DIRECTION('center_axis',(0.,0.,1.));
#372=DIRECTION('ref_axis',(-0.707106781186548,-0.707106781186548,0.));
#373=DIRECTION($,(0.,0.,1.));
#374=DIRECTION('center_axis',(0.,-1.,0.));
#375=DIRECTION('ref_axis',(1.,0.,0.));
#376=DIRECTION($,(1.,0.,0.));
#377=DIRECTION($,(0.,0.,-1.));
#378=DIRECTION($,(1.,0.,0.));
#379=DIRECTION('center_axis',(0.,0.,1.));
#380=DIRECTION('ref_axis',(1.,0.,0.));
#381=DIRECTION($,(0.,1.,0.));
#382=DIRECTION($,(-1.,0.,0.));
#383=DIRECTION($,(-8.88178419700125E-016,1.,0.));
#384=DIRECTION('center_axis',(0.,0.,1.));
#385=DIRECTION('ref_axis',(0.707106781186548,-0.707106781186548,0.));
#386=DIRECTION('center_axis',(0.,0.,1.));
#387=DIRECTION('ref_axis',(1.,0.,0.));
#388=DIRECTION('center_axis',(0.,0.,1.));
#389=DIRECTION('ref_axis',(1.,0.,0.));
#390=DIRECTION('center_axis',(0.,0.,1.));
#391=DIRECTION('ref_axis',(0.707106781186548,-0.707106781186548,0.));
#392=DIRECTION('center_axis',(0.,0.,-1.));
#393=DIRECTION('ref_axis',(0.707106781186548,-0.707106781186548,0.));
#394=DIRECTION($,(0.,0.,1.));
#395=DIRECTION('center_axis',(-8.88178419700125E-016,1.,2.62953635073671E-031));
#396=DIRECTION('ref_axis',(-0.707106781186544,-6.28036983473507E-016,0.707106781186551));
#397=DIRECTION('center_axis',(-5.55111512312578E-017,-1.,0.));
#398=DIRECTION('ref_axis',(-0.707106781186544,3.92523114670942E-017,0.707106781186551));
#399=DIRECTION($,(8.88178419700125E-016,-1.,-2.62953635073671E-031));
#400=DIRECTION('center_axis',(5.55111512312578E-017,1.,0.));
#401=DIRECTION('ref_axis',(-0.707106781186544,3.92523114670942E-017,0.707106781186551));
#402=DIRECTION($,(-8.88178419700125E-016,1.,2.62953635073671E-031));
#403=DIRECTION('center_axis',(2.96059473233375E-016,0.,1.));
#404=DIRECTION('ref_axis',(1.,0.,0.));
#405=DIRECTION($,(1.,0.,-2.96059473233375E-016));
#406=DIRECTION($,(8.88178419700125E-016,-1.,-2.62953635073671E-031));
#407=DIRECTION($,(1.,0.,-2.96059473233375E-016));
#408=DIRECTION('center_axis',(-5.55111512312578E-017,-1.,0.));
#409=DIRECTION('ref_axis',(0.,0.,-1.));
#410=DIRECTION($,(1.82003774528714E-016,0.,1.));
#411=DIRECTION($,(-1.,0.,0.));
#412=DIRECTION($,(-7.28015098114857E-017,0.,-1.));
#413=DIRECTION('center_axis',(5.55111512312578E-017,1.,0.));
#414=DIRECTION('ref_axis',(0.707106781186548,-3.92523114670944E-017,0.707106781186548));
#415=DIRECTION('center_axis',(5.55111512312578E-017,1.,0.));
#416=DIRECTION('ref_axis',(1.,-5.55111512312578E-017,0.));
#417=DIRECTION('center_axis',(5.55111512312578E-017,1.,0.));
#418=DIRECTION('ref_axis',(1.,-5.55111512312578E-017,0.));
#419=DIRECTION('center_axis',(-8.88178419700125E-016,1.,2.62953635073671E-031));
#420=DIRECTION('ref_axis',(0.707106781186548,6.2803698347351E-016,0.707106781186548));
#421=DIRECTION('center_axis',(-5.55111512312578E-017,-1.,0.));
#422=DIRECTION('ref_axis',(0.707106781186548,-3.92523114670944E-017,0.707106781186548));
#423=DIRECTION($,(-8.88178419700125E-016,1.,2.62953635073671E-031));
#424=DIRECTION('center_axis',(1.,8.88178419700125E-016,0.));
#425=DIRECTION('ref_axis',(0.,1.,0.));
#426=DIRECTION($,(-7.28015098114857E-017,0.,-1.));
#427=DIRECTION($,(-8.88178419700125E-016,1.,0.));
#428=DIRECTION('center_axis',(-5.55111512312578E-017,-1.,0.));
#429=DIRECTION('ref_axis',(1.,-5.55111512312578E-017,0.));
#430=DIRECTION('center_axis',(-5.55111512312578E-017,-1.,0.));
#431=DIRECTION('ref_axis',(1.,-5.55111512312578E-017,0.));
#432=DIRECTION('center_axis',(-5.55111512312578E-017,-1.,0.));
#433=DIRECTION('ref_axis',(1.,-5.55111512312578E-017,0.));
#434=DIRECTION('center_axis',(-5.55111512312578E-017,-1.,0.));
#435=DIRECTION('ref_axis',(1.,-5.55111512312578E-017,0.));
#436=DIRECTION('center_axis',(0.,0.,1.));
#437=DIRECTION('ref_axis',(1.,0.,0.));
#438=DIRECTION('center_axis',(0.,0.,-1.));
#439=DIRECTION('ref_axis',(1.,0.,0.));
#440=DIRECTION('center_axis',(0.,0.,1.));
#441=DIRECTION('ref_axis',(1.,0.,0.));
#442=DIRECTION('center_axis',(0.,0.,1.));
#443=DIRECTION('ref_axis',(1.,0.,0.));
#444=DIRECTION('center_axis',(0.,0.,1.));
#445=DIRECTION('ref_axis',(1.,0.,0.));
#446=DIRECTION('center_axis',(0.,0.,-1.));
#447=DIRECTION('ref_axis',(1.,0.,0.));
#448=DIRECTION('center_axis',(0.,0.,1.));
#449=DIRECTION('ref_axis',(1.,0.,0.));
#450=DIRECTION('center_axis',(0.,0.,1.));
#451=DIRECTION('ref_axis',(1.,0.,0.));
#452=DIRECTION('center_axis',(-5.55111512312578E-017,-1.,0.));
#453=DIRECTION('ref_axis',(0.,0.,-1.));
#454=DIRECTION($,(1.82003774528714E-016,0.,1.));
#455=DIRECTION('center_axis',(-1.,-8.88178419700125E-016,0.));
#456=DIRECTION('ref_axis',(0.,-1.,0.));
#457=DIRECTION($,(8.88178419700125E-016,-1.,0.));
#458=DIRECTION('center_axis',(0.,0.,1.));
#459=DIRECTION('ref_axis',(1.,0.,0.));
#460=CARTESIAN_POINT('',(0.,0.,0.));
#461=CARTESIAN_POINT('Origin',(71.7984716750053,55.9815261455316,0.));
#462=CARTESIAN_POINT('',(71.7984716750053,53.9815261455316,3.));
#463=CARTESIAN_POINT('',(69.7984716750053,55.9815261455316,3.));
#464=CARTESIAN_POINT('Origin',(71.7984716750053,55.9815261455316,3.));
#465=CARTESIAN_POINT('',(69.7984716750053,55.9815261455316,0.));
#466=CARTESIAN_POINT($,(69.7984716750053,55.9815261455316,0.));
#467=CARTESIAN_POINT('',(71.7984716750053,53.9815261455316,0.));
#468=CARTESIAN_POINT('Origin',(71.7984716750053,55.9815261455316,0.));
#469=CARTESIAN_POINT($,(71.7984716750053,53.9815261455316,0.));
#470=CARTESIAN_POINT('Origin',(69.7984716750053,53.9815261455316,0.));
#471=CARTESIAN_POINT('',(97.7984716750053,53.9815261455316,0.));
#472=CARTESIAN_POINT($,(69.7984716750053,53.9815261455316,0.));
#473=CARTESIAN_POINT('',(97.7984716750053,53.9815261455316,3.));
#474=CARTESIAN_POINT($,(97.7984716750053,53.9815261455316,0.));
#475=CARTESIAN_POINT($,(69.7984716750053,53.9815261455316,3.));
#476=CARTESIAN_POINT('Origin',(84.7984716750053,63.9815261455316,0.));
#477=CARTESIAN_POINT('',(69.7984716750053,76.9815261455316,0.));
#478=CARTESIAN_POINT($,(69.7984716750053,73.9815261455316,0.));
#479=CARTESIAN_POINT('',(99.7984716750053,76.9815261455316,0.));
#480=CARTESIAN_POINT($,(99.7984716750053,76.9815261455316,0.));
#481=CARTESIAN_POINT('',(99.7984716750053,55.9815261455316,0.));
#482=CARTESIAN_POINT($,(99.7984716750053,53.9815261455316,0.));
#483=CARTESIAN_POINT('Origin',(97.7984716750053,55.9815261455316,0.));
#484=CARTESIAN_POINT('',(75.5484716750053,65.4815261455316,0.));
#485=CARTESIAN_POINT('Origin',(78.2984716750053,65.4815261455316,0.));
#486=CARTESIAN_POINT('',(88.5484716750053,65.4815261455316,0.));
#487=CARTESIAN_POINT('Origin',(91.2984716750053,65.4815261455316,0.));
#488=CARTESIAN_POINT('Origin',(97.7984716750053,55.9815261455316,0.));
#489=CARTESIAN_POINT('',(99.7984716750053,55.9815261455316,3.));
#490=CARTESIAN_POINT('Origin',(97.7984716750053,55.9815261455316,3.));
#491=CARTESIAN_POINT($,(99.7984716750053,55.9815261455316,0.));
#492=CARTESIAN_POINT('Origin',(71.7984716750053,73.9815261455316,59.));
#493=CARTESIAN_POINT('',(71.7984716750053,76.9815261455316,61.));
#494=CARTESIAN_POINT('',(69.7984716750053,76.9815261455316,59.));
#495=CARTESIAN_POINT('Origin',(71.7984716750053,76.9815261455316,59.));
#496=CARTESIAN_POINT('',(69.7984716750053,73.9815261455316,59.));
#497=CARTESIAN_POINT($,(69.7984716750053,73.9815261455316,59.));
#498=CARTESIAN_POINT('',(71.7984716750053,73.9815261455316,61.));
#499=CARTESIAN_POINT('Origin',(71.7984716750053,73.9815261455316,59.));
#500=CARTESIAN_POINT($,(71.7984716750053,73.9815261455316,61.));
#501=CARTESIAN_POINT('Origin',(69.7984716750053,73.9815261455316,61.));
#502=CARTESIAN_POINT('',(97.7984716750053,73.9815261455316,61.));
#503=CARTESIAN_POINT($,(69.7984716750053,73.9815261455316,61.));
#504=CARTESIAN_POINT('',(97.7984716750053,76.9815261455316,61.));
#505=CARTESIAN_POINT($,(97.7984716750053,63.9815261455316,61.));
#506=CARTESIAN_POINT($,(69.7984716750053,76.9815261455316,61.));
#507=CARTESIAN_POINT('Origin',(84.7984716750053,73.9815261455316,30.5));
#508=CARTESIAN_POINT('',(69.7984716750053,73.9815261455316,3.));
#509=CARTESIAN_POINT($,(69.7984716750053,73.9815261455316,0.));
#510=CARTESIAN_POINT('',(99.7984716750053,73.9815261455316,3.));
#511=CARTESIAN_POINT($,(99.7984716750053,73.9815261455316,3.));
#512=CARTESIAN_POINT('',(99.7984716750053,73.9815261455316,59.));
#513=CARTESIAN_POINT($,(99.7984716750053,73.9815261455316,61.));
#514=CARTESIAN_POINT('Origin',(97.7984716750053,73.9815261455316,59.));
#515=CARTESIAN_POINT('',(95.0484716750053,73.9815261455316,55.));
#516=CARTESIAN_POINT('Origin',(93.7984716750053,73.9815261455316,55.));
#517=CARTESIAN_POINT('',(77.0484716750053,73.9815261455316,18.));
#518=CARTESIAN_POINT('Origin',(75.7984716750053,73.9815261455316,18.));
#519=CARTESIAN_POINT('Origin',(97.7984716750053,63.9815261455316,59.));
#520=CARTESIAN_POINT('',(99.7984716750053,76.9815261455316,59.));
#521=CARTESIAN_POINT('Origin',(97.7984716750053,76.9815261455316,59.));
#522=CARTESIAN_POINT($,(99.7984716750053,63.9815261455316,59.));
#523=CARTESIAN_POINT('Origin',(99.7984716750053,53.9815261455316,0.));
#524=CARTESIAN_POINT($,(99.7984716750053,76.9815261455316,61.));
#525=CARTESIAN_POINT($,(99.7984716750053,53.9815261455316,3.));
#526=CARTESIAN_POINT('Origin',(93.7984716750053,145.745026617568,55.));
#527=CARTESIAN_POINT('',(92.5484716750053,76.9815261455316,55.));
#528=CARTESIAN_POINT('Origin',(93.7984716750053,76.9815261455316,55.));
#529=CARTESIAN_POINT('Origin',(75.7984716750053,145.745026617568,18.));
#530=CARTESIAN_POINT('',(74.5484716750053,76.9815261455316,18.));
#531=CARTESIAN_POINT('Origin',(75.7984716750053,76.9815261455316,18.));
#532=CARTESIAN_POINT('Origin',(78.2984716750053,65.4815261455316,1.775));
#533=CARTESIAN_POINT('',(83.4984716750053,65.4815261455316,3.));
#534=CARTESIAN_POINT('Origin',(78.2984716750053,65.4815261455316,3.));
#535=CARTESIAN_POINT('',(81.0484716750053,65.4815261455316,0.55));
#536=CARTESIAN_POINT('Origin',(78.2984716750053,65.4815261455316,0.549999999999999));
#537=CARTESIAN_POINT('Origin',(78.2984716750053,65.4815261455316,-68.7635004720366));
#538=CARTESIAN_POINT('Origin',(91.2984716750053,65.4815261455316,1.775));
#539=CARTESIAN_POINT('',(96.4984716750053,65.4815261455316,3.));
#540=CARTESIAN_POINT('Origin',(91.2984716750053,65.4815261455316,3.));
#541=CARTESIAN_POINT('',(94.0484716750053,65.4815261455316,0.55));
#542=CARTESIAN_POINT('Origin',(91.2984716750053,65.4815261455316,0.549999999999999));
#543=CARTESIAN_POINT('Origin',(91.2984716750053,65.4815261455316,-68.7635004720366));
#544=CARTESIAN_POINT('Origin',(84.7984716750053,76.9815261455316,30.5));
#545=CARTESIAN_POINT($,(69.7984716750053,76.9815261455316,0.));
#546=CARTESIAN_POINT('Origin',(69.7984716750053,73.9815261455316,0.));
#547=CARTESIAN_POINT($,(69.7984716750053,73.9815261455316,3.));
#548=CARTESIAN_POINT('Origin',(84.7984716750053,63.9815261455316,3.));
#549=UNCERTAINTY_MEASURE_WITH_UNIT(LENGTH_MEASURE(0.01),#551,
'DISTANCE_ACCURACY_VALUE',
'Maximum model space distance between geometric entities at asserted c
onnectivities');
#550=(
GEOMETRIC_REPRESENTATION_CONTEXT(3)
GLOBAL_UNCERTAINTY_ASSIGNED_CONTEXT((#549))
GLOBAL_UNIT_ASSIGNED_CONTEXT((#551,#554,#552))
REPRESENTATION_CONTEXT('','3D')
);
#551=(
LENGTH_UNIT()
NAMED_UNIT(*)
SI_UNIT(.MILLI.,.METRE.)
);
#552=(
NAMED_UNIT(*)
SI_UNIT($,.STERADIAN.)
SOLID_ANGLE_UNIT()
);
#553=DIMENSIONAL_EXPONENTS(0.,0.,0.,0.,0.,0.,0.);
#554=(
CONVERSION_BASED_UNIT('degree',#556)
NAMED_UNIT(#553)
PLANE_ANGLE_UNIT()
);
#555=(
NAMED_UNIT(*)
PLANE_ANGLE_UNIT()
SI_UNIT($,.RADIAN.)
);
#556=PLANE_ANGLE_MEASURE_WITH_UNIT(PLANE_ANGLE_MEASURE(0.01745329252),#555);
#557=SHAPE_DEFINITION_REPRESENTATION(#558,#559);
#558=PRODUCT_DEFINITION_SHAPE('',$,#561);
#559=SHAPE_REPRESENTATION('',(#327),#550);
#560=PRODUCT_DEFINITION_CONTEXT('3D Mechanical Parts',#564,'design');
#561=PRODUCT_DEFINITION('AP000042','AP000042',#562,#560);
#562=PRODUCT_DEFINITION_FORMATION('',$,#566);
#563=APPLICATION_PROTOCOL_DEFINITION('international standard',
'automotive_design',2009,#564);
#564=APPLICATION_CONTEXT(
'Core Data for Automotive Mechanical Design Process');
#565=PRODUCT_CONTEXT('3D Mechanical Parts',#564,'mechanical');
#566=PRODUCT('AP000042','AP000042',$,(#565));
#567=PRESENTATION_STYLE_ASSIGNMENT((#568));
#568=SURFACE_STYLE_USAGE(.BOTH.,#569);
#569=SURFACE_SIDE_STYLE($,(#570));
#570=SURFACE_STYLE_FILL_AREA(#571);
#571=FILL_AREA_STYLE($,(#572));
#572=FILL_AREA_STYLE_COLOUR($,#573);
#573=COLOUR_RGB('',0.749019607843137,0.749019607843137,0.749019607843137);
ENDSEC;
END-ISO-10303-21;
