ISO-10303-21;
HEADER;
/* Generated by software containing ST-Developer
 * from STEP Tools, Inc. (www.steptools.com) 
 */

FILE_DESCRIPTION(
/* description */ (''),
/* implementation_level */ '2;1');

FILE_NAME(
/* name */ 
'C:\\Users\\mitarbeiter\\Desktop\\3D\\Imported Components\\IBR30106\\I
BR30106.stp',
/* time_stamp */ '2016-10-04T13:43:24+02:00',
/* author */ ('mitarbeiter'),
/* organization */ (''),
/* preprocessor_version */ 'ST-DEVELOPER v15.2',
/* originating_system */ 'Autodesk Inventor 2014',
/* authorisation */ '');

FILE_SCHEMA (('AUTOMOTIVE_DESIGN { 1 0 10303 214 3 1 1 }'));
ENDSEC;

DATA;
#10=SHAPE_REPRESENTATION_RELATIONSHIP('SRR','None',#382,#11);
#11=ADVANCED_BREP_SHAPE_REPRESENTATION($,(#160),#373);
#12=STYLED_ITEM($,(#391),#160);
#13=LINE($,#286,#14);
#14=VECTOR($,#204,2.5);
#15=B_SPLINE_CURVE_WITH_KNOTS($,3,(#243,#244,#245,#246,#247,#248,#249,#250,
#251,#252),.UNSPECIFIED.,.F.,.F.,(4,2,2,2,4),(-0.334028402757548,-0.309063390685848,
-0.284098378614148,-0.260515504980429,-0.236932631346711),.UNSPECIFIED.);
#16=B_SPLINE_CURVE_WITH_KNOTS($,3,(#254,#255,#256,#257,#258,#259,#260,#261,
#262,#263),.UNSPECIFIED.,.F.,.F.,(4,2,2,2,4),(-0.473865262693422,-0.432284753436936,
-0.390704244180449,-0.362366323468998,-0.334028402757548),.UNSPECIFIED.);
#17=B_SPLINE_CURVE_WITH_KNOTS($,3,(#265,#266,#267,#268,#269,#270,#271,#272,
#273,#274),.UNSPECIFIED.,.F.,.F.,(4,2,2,2,4),(-0.139836859935875,-0.111498939224424,
-0.0831610185129734,-0.0415805092564867,0.),.UNSPECIFIED.);
#18=B_SPLINE_CURVE_WITH_KNOTS($,3,(#276,#277,#278,#279,#280,#281,#282,#283,
#284,#285),.UNSPECIFIED.,.F.,.F.,(4,2,2,2,4),(-0.236932631346711,-0.213349757712993,
-0.189766884079275,-0.164801872007575,-0.139836859935875),.UNSPECIFIED.);
#19=B_SPLINE_CURVE_WITH_KNOTS($,3,(#289,#290,#291,#292,#293,#294,#295,#296,
#297,#298,#299,#300,#301,#302,#303,#304,#305,#306),.UNSPECIFIED.,.F.,.F.,
(4,2,2,2,2,2,2,2,4),(0.236932631346711,0.260515504980429,0.284098378614148,
0.309063390685848,0.334028402757548,0.362366323468998,0.390704244180449,
0.432284753436936,0.473865262693422),.UNSPECIFIED.);
#20=B_SPLINE_CURVE_WITH_KNOTS($,3,(#307,#308,#309,#310,#311,#312,#313,#314,
#315,#316,#317,#318,#319,#320,#321,#322,#323,#324),.UNSPECIFIED.,.F.,.F.,
(4,2,2,2,2,2,2,2,4),(0.,0.0415805092564867,0.0831610185129735,0.111498939224424,
0.139836859935875,0.164801872007575,0.189766884079275,0.213349757712993,
0.236932631346711),.UNSPECIFIED.);
#21=B_SPLINE_CURVE_WITH_KNOTS($,3,(#330,#331,#332,#333,#334,#335,#336,#337,
#338,#339,#340,#341,#342,#343,#344,#345,#346,#347,#348,#349,#350,#351,#352,
#353,#354,#355,#356,#357,#358,#359,#360,#361,#362,#363),.UNSPECIFIED.,.T.,
 .F.,(4,2,2,2,2,2,2,2,2,2,2,2,2,2,2,2,4),(0.,0.0189969090611844,0.0379938181223688,
0.0569819164024715,0.0759700146825742,0.0949581129626769,0.11394621124278,
0.132943120303964,0.151940029365148,0.170936938426333,0.189933847487517,
0.20892194576762,0.227910044047722,0.246898142327825,0.265886240607928,
0.284883149669112,0.303880058730297),.UNSPECIFIED.);
#22=PLANE($,#168);
#23=PLANE($,#169);
#24=PLANE($,#173);
#25=PLANE($,#178);
#26=PLANE($,#181);
#27=FACE_BOUND($,#49,.T.);
#28=FACE_BOUND($,#51,.T.);
#29=FACE_BOUND($,#53,.T.);
#30=FACE_BOUND($,#55,.T.);
#31=FACE_BOUND($,#60,.T.);
#32=FACE_BOUND($,#62,.T.);
#33=FACE_BOUND($,#63,.T.);
#34=FACE_BOUND($,#65,.T.);
#35=FACE_BOUND($,#67,.T.);
#36=FACE_OUTER_BOUND($,#48,.T.);
#37=FACE_OUTER_BOUND($,#50,.T.);
#38=FACE_OUTER_BOUND($,#52,.T.);
#39=FACE_OUTER_BOUND($,#54,.T.);
#40=FACE_OUTER_BOUND($,#56,.T.);
#41=FACE_OUTER_BOUND($,#57,.T.);
#42=FACE_OUTER_BOUND($,#58,.T.);
#43=FACE_OUTER_BOUND($,#59,.T.);
#44=FACE_OUTER_BOUND($,#61,.T.);
#45=FACE_OUTER_BOUND($,#64,.T.);
#46=FACE_OUTER_BOUND($,#66,.T.);
#47=FACE_OUTER_BOUND($,#68,.T.);
#48=EDGE_LOOP($,(#108));
#49=EDGE_LOOP($,(#109));
#50=EDGE_LOOP($,(#110));
#51=EDGE_LOOP($,(#111));
#52=EDGE_LOOP($,(#112));
#53=EDGE_LOOP($,(#113));
#54=EDGE_LOOP($,(#114));
#55=EDGE_LOOP($,(#115));
#56=EDGE_LOOP($,(#116,#117,#118,#119,#120));
#57=EDGE_LOOP($,(#121,#122,#123));
#58=EDGE_LOOP($,(#124));
#59=EDGE_LOOP($,(#125));
#60=EDGE_LOOP($,(#126));
#61=EDGE_LOOP($,(#127));
#62=EDGE_LOOP($,(#128));
#63=EDGE_LOOP($,(#129));
#64=EDGE_LOOP($,(#130));
#65=EDGE_LOOP($,(#131));
#66=EDGE_LOOP($,(#132,#133,#134,#135,#136,#137));
#67=EDGE_LOOP($,(#138));
#68=EDGE_LOOP($,(#139));
#69=CIRCLE($,#163,1.35);
#70=CIRCLE($,#164,1.35);
#71=CIRCLE($,#166,1.41421356237309);
#72=CIRCLE($,#167,1.41421356237309);
#73=CIRCLE($,#170,1.5);
#74=CIRCLE($,#174,0.5);
#75=CIRCLE($,#177,1.5);
#76=CIRCLE($,#179,1.25);
#77=VERTEX_POINT($,#227);
#78=VERTEX_POINT($,#229);
#79=VERTEX_POINT($,#232);
#80=VERTEX_POINT($,#234);
#81=VERTEX_POINT($,#238);
#82=VERTEX_POINT($,#241);
#83=VERTEX_POINT($,#242);
#84=VERTEX_POINT($,#253);
#85=VERTEX_POINT($,#264);
#86=VERTEX_POINT($,#275);
#87=VERTEX_POINT($,#288);
#88=VERTEX_POINT($,#326);
#89=VERTEX_POINT($,#329);
#90=VERTEX_POINT($,#365);
#91=VERTEX_POINT($,#368);
#92=EDGE_CURVE($,#77,#77,#69,.T.);
#93=EDGE_CURVE($,#78,#78,#70,.T.);
#94=EDGE_CURVE($,#79,#79,#71,.T.);
#95=EDGE_CURVE($,#80,#80,#72,.T.);
#96=EDGE_CURVE($,#81,#81,#73,.T.);
#97=EDGE_CURVE($,#82,#83,#15,.T.);
#98=EDGE_CURVE($,#84,#82,#16,.T.);
#99=EDGE_CURVE($,#85,#84,#17,.T.);
#100=EDGE_CURVE($,#86,#85,#18,.T.);
#101=EDGE_CURVE($,#86,#83,#13,.T.);
#102=EDGE_CURVE($,#83,#87,#19,.T.);
#103=EDGE_CURVE($,#87,#86,#20,.T.);
#104=EDGE_CURVE($,#88,#88,#74,.T.);
#105=EDGE_CURVE($,#89,#89,#21,.T.);
#106=EDGE_CURVE($,#90,#90,#75,.T.);
#107=EDGE_CURVE($,#91,#91,#76,.T.);
#108=ORIENTED_EDGE($,*,*,#92,.T.);
#109=ORIENTED_EDGE($,*,*,#93,.F.);
#110=ORIENTED_EDGE($,*,*,#94,.F.);
#111=ORIENTED_EDGE($,*,*,#95,.F.);
#112=ORIENTED_EDGE($,*,*,#94,.T.);
#113=ORIENTED_EDGE($,*,*,#92,.F.);
#114=ORIENTED_EDGE($,*,*,#96,.T.);
#115=ORIENTED_EDGE($,*,*,#95,.T.);
#116=ORIENTED_EDGE($,*,*,#97,.F.);
#117=ORIENTED_EDGE($,*,*,#98,.F.);
#118=ORIENTED_EDGE($,*,*,#99,.F.);
#119=ORIENTED_EDGE($,*,*,#100,.F.);
#120=ORIENTED_EDGE($,*,*,#101,.T.);
#121=ORIENTED_EDGE($,*,*,#102,.F.);
#122=ORIENTED_EDGE($,*,*,#101,.F.);
#123=ORIENTED_EDGE($,*,*,#103,.F.);
#124=ORIENTED_EDGE($,*,*,#104,.F.);
#125=ORIENTED_EDGE($,*,*,#104,.T.);
#126=ORIENTED_EDGE($,*,*,#105,.F.);
#127=ORIENTED_EDGE($,*,*,#106,.T.);
#128=ORIENTED_EDGE($,*,*,#105,.T.);
#129=ORIENTED_EDGE($,*,*,#96,.F.);
#130=ORIENTED_EDGE($,*,*,#106,.F.);
#131=ORIENTED_EDGE($,*,*,#107,.F.);
#132=ORIENTED_EDGE($,*,*,#99,.T.);
#133=ORIENTED_EDGE($,*,*,#98,.T.);
#134=ORIENTED_EDGE($,*,*,#97,.T.);
#135=ORIENTED_EDGE($,*,*,#102,.T.);
#136=ORIENTED_EDGE($,*,*,#103,.T.);
#137=ORIENTED_EDGE($,*,*,#100,.T.);
#138=ORIENTED_EDGE($,*,*,#107,.T.);
#139=ORIENTED_EDGE($,*,*,#93,.T.);
#140=CYLINDRICAL_SURFACE($,#162,1.35);
#141=CYLINDRICAL_SURFACE($,#165,1.41421356237309);
#142=CYLINDRICAL_SURFACE($,#171,0.625);
#143=CYLINDRICAL_SURFACE($,#172,0.625);
#144=CYLINDRICAL_SURFACE($,#175,0.5);
#145=CYLINDRICAL_SURFACE($,#176,1.5);
#146=CYLINDRICAL_SURFACE($,#180,1.25);
#147=ADVANCED_FACE($,(#36,#27),#140,.T.);
#148=ADVANCED_FACE($,(#37,#28),#141,.F.);
#149=ADVANCED_FACE($,(#38,#29),#22,.F.);
#150=ADVANCED_FACE($,(#39,#30),#23,.T.);
#151=ADVANCED_FACE($,(#40),#142,.T.);
#152=ADVANCED_FACE($,(#41),#143,.F.);
#153=ADVANCED_FACE($,(#42),#24,.T.);
#154=ADVANCED_FACE($,(#43,#31),#144,.F.);
#155=ADVANCED_FACE($,(#44,#32,#33),#145,.T.);
#156=ADVANCED_FACE($,(#45,#34),#25,.F.);
#157=ADVANCED_FACE($,(#46,#35),#146,.T.);
#158=ADVANCED_FACE($,(#47),#26,.T.);
#159=CLOSED_SHELL($,(#147,#148,#149,#150,#151,#152,#153,#154,#155,#156,
#157,#158));
#160=MANIFOLD_SOLID_BREP('Volumenk\X\F6rper1',#159);
#161=AXIS2_PLACEMENT_3D('placement',#225,#182,#183);
#162=AXIS2_PLACEMENT_3D($,#226,#184,#185);
#163=AXIS2_PLACEMENT_3D($,#228,#186,#187);
#164=AXIS2_PLACEMENT_3D($,#230,#188,#189);
#165=AXIS2_PLACEMENT_3D($,#231,#190,#191);
#166=AXIS2_PLACEMENT_3D($,#233,#192,#193);
#167=AXIS2_PLACEMENT_3D($,#235,#194,#195);
#168=AXIS2_PLACEMENT_3D($,#236,#196,#197);
#169=AXIS2_PLACEMENT_3D($,#237,#198,#199);
#170=AXIS2_PLACEMENT_3D($,#239,#200,#201);
#171=AXIS2_PLACEMENT_3D($,#240,#202,#203);
#172=AXIS2_PLACEMENT_3D($,#287,#205,#206);
#173=AXIS2_PLACEMENT_3D($,#325,#207,#208);
#174=AXIS2_PLACEMENT_3D($,#327,#209,#210);
#175=AXIS2_PLACEMENT_3D($,#328,#211,#212);
#176=AXIS2_PLACEMENT_3D($,#364,#213,#214);
#177=AXIS2_PLACEMENT_3D($,#366,#215,#216);
#178=AXIS2_PLACEMENT_3D($,#367,#217,#218);
#179=AXIS2_PLACEMENT_3D($,#369,#219,#220);
#180=AXIS2_PLACEMENT_3D($,#370,#221,#222);
#181=AXIS2_PLACEMENT_3D($,#371,#223,#224);
#182=DIRECTION('axis',(0.,0.,1.));
#183=DIRECTION('refdir',(1.,0.,0.));
#184=DIRECTION('center_axis',(0.,0.,1.));
#185=DIRECTION('ref_axis',(1.,0.,0.));
#186=DIRECTION('center_axis',(0.,0.,-1.));
#187=DIRECTION('ref_axis',(1.,0.,0.));
#188=DIRECTION('center_axis',(0.,0.,-1.));
#189=DIRECTION('ref_axis',(1.,0.,0.));
#190=DIRECTION('center_axis',(0.,0.,1.));
#191=DIRECTION('ref_axis',(1.,0.,0.));
#192=DIRECTION('center_axis',(0.,0.,-1.));
#193=DIRECTION('ref_axis',(1.,0.,0.));
#194=DIRECTION('center_axis',(0.,0.,1.));
#195=DIRECTION('ref_axis',(1.,0.,0.));
#196=DIRECTION('center_axis',(0.,0.,1.));
#197=DIRECTION('ref_axis',(1.,0.,0.));
#198=DIRECTION('center_axis',(0.,0.,-1.));
#199=DIRECTION('ref_axis',(-1.,0.,0.));
#200=DIRECTION('center_axis',(0.,0.,-1.));
#201=DIRECTION('ref_axis',(-1.,0.,0.));
#202=DIRECTION('center_axis',(0.,1.,0.));
#203=DIRECTION('ref_axis',(-1.,0.,0.));
#204=DIRECTION($,(0.,-1.,0.));
#205=DIRECTION('center_axis',(0.,1.,0.));
#206=DIRECTION('ref_axis',(-1.,0.,0.));
#207=DIRECTION('center_axis',(0.,1.,0.));
#208=DIRECTION('ref_axis',(0.,0.,1.));
#209=DIRECTION('center_axis',(0.,-1.,0.));
#210=DIRECTION('ref_axis',(-1.,0.,0.));
#211=DIRECTION('center_axis',(0.,1.,-1.009294E-016));
#212=DIRECTION('ref_axis',(-1.,0.,0.));
#213=DIRECTION('center_axis',(0.,0.,1.));
#214=DIRECTION('ref_axis',(-1.,0.,0.));
#215=DIRECTION('center_axis',(0.,0.,-1.));
#216=DIRECTION('ref_axis',(-1.,0.,0.));
#217=DIRECTION('center_axis',(0.,0.,-1.));
#218=DIRECTION('ref_axis',(-1.,0.,0.));
#219=DIRECTION('center_axis',(0.,0.,1.));
#220=DIRECTION('ref_axis',(-1.,0.,0.));
#221=DIRECTION('center_axis',(0.,0.,1.));
#222=DIRECTION('ref_axis',(-1.,0.,0.));
#223=DIRECTION('center_axis',(0.,0.,-1.));
#224=DIRECTION('ref_axis',(-1.,0.,0.));
#225=CARTESIAN_POINT('',(0.,0.,0.));
#226=CARTESIAN_POINT('Origin',(0.,0.,0.));
#227=CARTESIAN_POINT('',(-1.35,1.653219E-016,0.3));
#228=CARTESIAN_POINT('Origin',(0.,0.,0.3));
#229=CARTESIAN_POINT('',(-1.35,1.653219E-016,0.));
#230=CARTESIAN_POINT('Origin',(0.,0.,0.));
#231=CARTESIAN_POINT('Origin',(0.,0.,0.));
#232=CARTESIAN_POINT('',(-1.41421356237309,1.731855E-016,0.3));
#233=CARTESIAN_POINT('Origin',(0.,0.,0.3));
#234=CARTESIAN_POINT('',(-1.41421356237309,1.731855E-016,0.));
#235=CARTESIAN_POINT('Origin',(0.,0.,0.));
#236=CARTESIAN_POINT('Origin',(0.,0.,0.3));
#237=CARTESIAN_POINT('Origin',(0.,0.,0.));
#238=CARTESIAN_POINT('',(1.5,1.83691E-016,0.));
#239=CARTESIAN_POINT('Origin',(0.,0.,0.));
#240=CARTESIAN_POINT('Origin',(0.625,2.533404E-015,41.375));
#241=CARTESIAN_POINT('',(0.625,-1.08253175473055,42.));
#242=CARTESIAN_POINT('',(0.,-1.25,41.375));
#243=CARTESIAN_POINT('Ctrl Pts',(0.625,-1.08253175473055,42.));
#244=CARTESIAN_POINT('Ctrl Pts',(0.552932217800408,-1.12414010818338,42.));
#245=CARTESIAN_POINT('Ctrl Pts',(0.471261663354344,-1.1606665225171,41.9865741515374));
#246=CARTESIAN_POINT('Ctrl Pts',(0.315474763660046,-1.21231594568799,41.9244111463647));
#247=CARTESIAN_POINT('Ctrl Pts',(0.241581574509979,-1.22785926922839,41.8754650509932));
#248=CARTESIAN_POINT('Ctrl Pts',(0.127774976283397,-1.24470750767346,41.7616584527666));
#249=CARTESIAN_POINT('Ctrl Pts',(0.0796299256635929,-1.24787054579871,41.6914617269668));
#250=CARTESIAN_POINT('Ctrl Pts',(0.0157446437196766,-1.25030953007952,41.5374329534935));
#251=CARTESIAN_POINT('Ctrl Pts',(0.,-1.25,41.4536095787791));
#252=CARTESIAN_POINT('Ctrl Pts',(0.,-1.25,41.375));
#253=CARTESIAN_POINT('',(1.25,0.,41.375));
#254=CARTESIAN_POINT('Ctrl Pts',(1.25,0.,41.375));
#255=CARTESIAN_POINT('Ctrl Pts',(1.25,-0.113167812137184,41.4550217273742));
#256=CARTESIAN_POINT('Ctrl Pts',(1.23384293882444,-0.236363663211428,41.5422543284114));
#257=CARTESIAN_POINT('Ctrl Pts',(1.16227049872307,-0.476826630051659,41.7066684995628));
#258=CARTESIAN_POINT('Ctrl Pts',(1.10678181239343,-0.594160905718412,41.7837198925381));
#259=CARTESIAN_POINT('Ctrl Pts',(0.989999152501231,-0.767852697642402,41.8862411265548));
#260=CARTESIAN_POINT('Ctrl Pts',(0.929328398237882,-0.841622078972955,41.9262070068982));
#261=CARTESIAN_POINT('Ctrl Pts',(0.787806276333655,-0.975366778831159,41.9832261286525));
#262=CARTESIAN_POINT('Ctrl Pts',(0.706804530755151,-1.03530188687813,42.));
#263=CARTESIAN_POINT('Ctrl Pts',(0.625,-1.08253175473055,42.));
#264=CARTESIAN_POINT('',(0.625,1.08253175473055,42.));
#265=CARTESIAN_POINT('Ctrl Pts',(0.625,1.08253175473055,42.));
#266=CARTESIAN_POINT('Ctrl Pts',(0.706804530755151,1.03530188687813,42.));
#267=CARTESIAN_POINT('Ctrl Pts',(0.787806276333654,0.97536677883116,41.9832261286525));
#268=CARTESIAN_POINT('Ctrl Pts',(0.929328398237884,0.841622078972953,41.9262070068982));
#269=CARTESIAN_POINT('Ctrl Pts',(0.989999152501231,0.767852697642402,41.8862411265548));
#270=CARTESIAN_POINT('Ctrl Pts',(1.10678181239343,0.594160905718412,41.7837198925381));
#271=CARTESIAN_POINT('Ctrl Pts',(1.16227049872307,0.476826630051659,41.7066684995628));
#272=CARTESIAN_POINT('Ctrl Pts',(1.23384293882444,0.236363663211428,41.5422543284114));
#273=CARTESIAN_POINT('Ctrl Pts',(1.25,0.113167812137184,41.4550217273742));
#274=CARTESIAN_POINT('Ctrl Pts',(1.25,0.,41.375));
#275=CARTESIAN_POINT('',(0.,1.25,41.375));
#276=CARTESIAN_POINT('Ctrl Pts',(0.,1.25,41.375));
#277=CARTESIAN_POINT('Ctrl Pts',(-1.11710930325243E-015,1.25,41.4536095787791));
#278=CARTESIAN_POINT('Ctrl Pts',(0.0157446437196716,1.25030953007952,41.5374329534935));
#279=CARTESIAN_POINT('Ctrl Pts',(0.0796299256635894,1.24787054579871,41.6914617269668));
#280=CARTESIAN_POINT('Ctrl Pts',(0.127774976283397,1.24470750767346,41.7616584527666));
#281=CARTESIAN_POINT('Ctrl Pts',(0.241581574509979,1.22785926922839,41.8754650509932));
#282=CARTESIAN_POINT('Ctrl Pts',(0.315474763660046,1.21231594568799,41.9244111463647));
#283=CARTESIAN_POINT('Ctrl Pts',(0.471261663354344,1.1606665225171,41.9865741515374));
#284=CARTESIAN_POINT('Ctrl Pts',(0.552932217800408,1.12414010818338,42.));
#285=CARTESIAN_POINT('Ctrl Pts',(0.625,1.08253175473055,42.));
#286=CARTESIAN_POINT($,(0.,1.25,41.375));
#287=CARTESIAN_POINT('Origin',(-0.625,2.533404E-015,41.375));
#288=CARTESIAN_POINT('',(-1.25,0.,41.375));
#289=CARTESIAN_POINT('Ctrl Pts',(0.,-1.25,41.375));
#290=CARTESIAN_POINT('Ctrl Pts',(-9.62689690340958E-018,-1.25,41.2963904212209));
#291=CARTESIAN_POINT('Ctrl Pts',(-0.0157446437196766,-1.25030953007952,
41.2125670465065));
#292=CARTESIAN_POINT('Ctrl Pts',(-0.0796299256635929,-1.24787054579871,
41.0585382730332));
#293=CARTESIAN_POINT('Ctrl Pts',(-0.127774976283397,-1.24470750767346,40.9883415472334));
#294=CARTESIAN_POINT('Ctrl Pts',(-0.241581574509979,-1.22785926922839,40.8745349490068));
#295=CARTESIAN_POINT('Ctrl Pts',(-0.315474763660046,-1.21231594568799,40.8255888536353));
#296=CARTESIAN_POINT('Ctrl Pts',(-0.471261663354344,-1.1606665225171,40.7634258484626));
#297=CARTESIAN_POINT('Ctrl Pts',(-0.552932217800408,-1.12414010818338,40.75));
#298=CARTESIAN_POINT('Ctrl Pts',(-0.706804530755151,-1.03530188687813,40.75));
#299=CARTESIAN_POINT('Ctrl Pts',(-0.787806276333653,-0.975366778831161,
40.7667738713475));
#300=CARTESIAN_POINT('Ctrl Pts',(-0.929328398237883,-0.841622078972954,
40.8237929931018));
#301=CARTESIAN_POINT('Ctrl Pts',(-0.989999152501231,-0.767852697642403,
40.8637588734452));
#302=CARTESIAN_POINT('Ctrl Pts',(-1.10678181239343,-0.594160905718413,40.9662801074619));
#303=CARTESIAN_POINT('Ctrl Pts',(-1.16227049872307,-0.476826630051659,41.0433315004372));
#304=CARTESIAN_POINT('Ctrl Pts',(-1.23384293882444,-0.236363663211428,41.2077456715886));
#305=CARTESIAN_POINT('Ctrl Pts',(-1.25,-0.113167812137184,41.2949782726258));
#306=CARTESIAN_POINT('Ctrl Pts',(-1.25,0.,41.375));
#307=CARTESIAN_POINT('Ctrl Pts',(-1.25,0.,41.375));
#308=CARTESIAN_POINT('Ctrl Pts',(-1.25,0.113167812137184,41.2949782726258));
#309=CARTESIAN_POINT('Ctrl Pts',(-1.23384293882444,0.236363663211428,41.2077456715886));
#310=CARTESIAN_POINT('Ctrl Pts',(-1.16227049872307,0.476826630051659,41.0433315004372));
#311=CARTESIAN_POINT('Ctrl Pts',(-1.10678181239343,0.594160905718413,40.9662801074619));
#312=CARTESIAN_POINT('Ctrl Pts',(-0.989999152501231,0.767852697642403,40.8637588734452));
#313=CARTESIAN_POINT('Ctrl Pts',(-0.929328398237883,0.841622078972954,40.8237929931018));
#314=CARTESIAN_POINT('Ctrl Pts',(-0.787806276333653,0.975366778831161,40.7667738713475));
#315=CARTESIAN_POINT('Ctrl Pts',(-0.706804530755151,1.03530188687813,40.75));
#316=CARTESIAN_POINT('Ctrl Pts',(-0.552932217800408,1.12414010818338,40.75));
#317=CARTESIAN_POINT('Ctrl Pts',(-0.471261663354344,1.1606665225171,40.7634258484626));
#318=CARTESIAN_POINT('Ctrl Pts',(-0.315474763660046,1.21231594568799,40.8255888536353));
#319=CARTESIAN_POINT('Ctrl Pts',(-0.241581574509979,1.22785926922839,40.8745349490068));
#320=CARTESIAN_POINT('Ctrl Pts',(-0.127774976283397,1.24470750767346,40.9883415472334));
#321=CARTESIAN_POINT('Ctrl Pts',(-0.0796299256635929,1.24787054579871,41.0585382730332));
#322=CARTESIAN_POINT('Ctrl Pts',(-0.0157446437196766,1.25030953007952,41.2125670465065));
#323=CARTESIAN_POINT('Ctrl Pts',(0.,1.25,41.2963904212209));
#324=CARTESIAN_POINT('Ctrl Pts',(0.,1.25,41.375));
#325=CARTESIAN_POINT('Origin',(0.,1.2,16.));
#326=CARTESIAN_POINT('',(0.5,1.2,16.));
#327=CARTESIAN_POINT('Origin',(0.,1.2,16.));
#328=CARTESIAN_POINT('Origin',(0.,9.796851E-016,16.));
#329=CARTESIAN_POINT('',(-0.5,1.41421356237309,16.));
#330=CARTESIAN_POINT('Ctrl Pts',(-0.5,1.4142135623731,16.));
#331=CARTESIAN_POINT('Ctrl Pts',(-0.5,1.4142135623731,15.9366769697961));
#332=CARTESIAN_POINT('Ctrl Pts',(-0.487245169634406,1.41891339143563,15.8694990132682));
#333=CARTESIAN_POINT('Ctrl Pts',(-0.436076453813175,1.43546520638117,15.7464734100212));
#334=CARTESIAN_POINT('Ctrl Pts',(-0.397685239999852,1.44703442803149,15.6905784588133));
#335=CARTESIAN_POINT('Ctrl Pts',(-0.309442009572504,1.46843655507841,15.602335228386));
#336=CARTESIAN_POINT('Ctrl Pts',(-0.253538905978702,1.4797184776517,15.5639282569417));
#337=CARTESIAN_POINT('Ctrl Pts',(-0.130483068610429,1.49560118971728,15.5127477895985));
#338=CARTESIAN_POINT('Ctrl Pts',(-0.0632936609336755,1.5,15.5));
#339=CARTESIAN_POINT('Ctrl Pts',(0.0632936609336758,1.5,15.5));
#340=CARTESIAN_POINT('Ctrl Pts',(0.13048306861043,1.49560118971728,15.5127477895985));
#341=CARTESIAN_POINT('Ctrl Pts',(0.253538905978703,1.4797184776517,15.5639282569417));
#342=CARTESIAN_POINT('Ctrl Pts',(0.309442009572505,1.46843655507841,15.602335228386));
#343=CARTESIAN_POINT('Ctrl Pts',(0.397685239999852,1.44703442803149,15.6905784588133));
#344=CARTESIAN_POINT('Ctrl Pts',(0.436076453813177,1.43546520638117,15.7464734100212));
#345=CARTESIAN_POINT('Ctrl Pts',(0.487245169634407,1.41891339143563,15.8694990132682));
#346=CARTESIAN_POINT('Ctrl Pts',(0.5,1.4142135623731,15.9366769697961));
#347=CARTESIAN_POINT('Ctrl Pts',(0.5,1.4142135623731,16.063323030204));
#348=CARTESIAN_POINT('Ctrl Pts',(0.487245169634406,1.41891339143563,16.1305009867318));
#349=CARTESIAN_POINT('Ctrl Pts',(0.436076453813176,1.43546520638117,16.2535265899788));
#350=CARTESIAN_POINT('Ctrl Pts',(0.397685239999852,1.44703442803149,16.3094215411867));
#351=CARTESIAN_POINT('Ctrl Pts',(0.309442009572505,1.46843655507841,16.397664771614));
#352=CARTESIAN_POINT('Ctrl Pts',(0.253538905978702,1.4797184776517,16.4360717430583));
#353=CARTESIAN_POINT('Ctrl Pts',(0.130483068610428,1.49560118971728,16.4872522104015));
#354=CARTESIAN_POINT('Ctrl Pts',(0.0632936609336758,1.5,16.5));
#355=CARTESIAN_POINT('Ctrl Pts',(-0.063293660933676,1.5,16.5));
#356=CARTESIAN_POINT('Ctrl Pts',(-0.130483068610428,1.49560118971728,16.4872522104015));
#357=CARTESIAN_POINT('Ctrl Pts',(-0.253538905978702,1.4797184776517,16.4360717430583));
#358=CARTESIAN_POINT('Ctrl Pts',(-0.309442009572505,1.46843655507841,16.397664771614));
#359=CARTESIAN_POINT('Ctrl Pts',(-0.397685239999852,1.44703442803149,16.3094215411867));
#360=CARTESIAN_POINT('Ctrl Pts',(-0.436076453813176,1.43546520638117,16.2535265899788));
#361=CARTESIAN_POINT('Ctrl Pts',(-0.487245169634406,1.41891339143563,16.1305009867318));
#362=CARTESIAN_POINT('Ctrl Pts',(-0.5,1.4142135623731,16.063323030204));
#363=CARTESIAN_POINT('Ctrl Pts',(-0.5,1.4142135623731,16.));
#364=CARTESIAN_POINT('Origin',(0.,0.,0.));
#365=CARTESIAN_POINT('',(1.5,1.83691E-016,22.));
#366=CARTESIAN_POINT('Origin',(0.,0.,22.));
#367=CARTESIAN_POINT('Origin',(0.,0.,22.));
#368=CARTESIAN_POINT('',(1.25,1.530758E-016,22.));
#369=CARTESIAN_POINT('Origin',(0.,0.,22.));
#370=CARTESIAN_POINT('Origin',(0.,0.,0.));
#371=CARTESIAN_POINT('Origin',(0.,0.,0.));
#372=UNCERTAINTY_MEASURE_WITH_UNIT(LENGTH_MEASURE(0.01),#374,
'DISTANCE_ACCURACY_VALUE',
'Maximum model space distance between geometric entities at asserted c
onnectivities');
#373=(
GEOMETRIC_REPRESENTATION_CONTEXT(3)
GLOBAL_UNCERTAINTY_ASSIGNED_CONTEXT((#372))
GLOBAL_UNIT_ASSIGNED_CONTEXT((#374,#377,#375))
REPRESENTATION_CONTEXT('','3D')
);
#374=(
LENGTH_UNIT()
NAMED_UNIT(*)
SI_UNIT(.MILLI.,.METRE.)
);
#375=(
NAMED_UNIT(*)
SI_UNIT($,.STERADIAN.)
SOLID_ANGLE_UNIT()
);
#376=DIMENSIONAL_EXPONENTS(0.,0.,0.,0.,0.,0.,0.);
#377=(
CONVERSION_BASED_UNIT('degree',#379)
NAMED_UNIT(#376)
PLANE_ANGLE_UNIT()
);
#378=(
NAMED_UNIT(*)
PLANE_ANGLE_UNIT()
SI_UNIT($,.RADIAN.)
);
#379=PLANE_ANGLE_MEASURE_WITH_UNIT(PLANE_ANGLE_MEASURE(0.01745329252),#378);
#380=SHAPE_DEFINITION_REPRESENTATION(#381,#382);
#381=PRODUCT_DEFINITION_SHAPE('',$,#384);
#382=SHAPE_REPRESENTATION('',(#161),#373);
#383=PRODUCT_DEFINITION_CONTEXT('3D Mechanical Parts',#387,'design');
#384=PRODUCT_DEFINITION('IBR30106','IBR30106',#385,#383);
#385=PRODUCT_DEFINITION_FORMATION('',$,#389);
#386=APPLICATION_PROTOCOL_DEFINITION('international standard',
'automotive_design',2009,#387);
#387=APPLICATION_CONTEXT(
'Core Data for Automotive Mechanical Design Process');
#388=PRODUCT_CONTEXT('3D Mechanical Parts',#387,'mechanical');
#389=PRODUCT('IBR30106','IBR30106',$,(#388));
#390=PRESENTATION_STYLE_ASSIGNMENT((#392));
#391=PRESENTATION_STYLE_ASSIGNMENT((#393));
#392=SURFACE_STYLE_USAGE(.BOTH.,#394);
#393=SURFACE_STYLE_USAGE(.BOTH.,#395);
#394=SURFACE_SIDE_STYLE($,(#396));
#395=SURFACE_SIDE_STYLE($,(#397));
#396=SURFACE_STYLE_FILL_AREA(#398);
#397=SURFACE_STYLE_FILL_AREA(#399);
#398=FILL_AREA_STYLE($,(#400));
#399=FILL_AREA_STYLE($,(#401));
#400=FILL_AREA_STYLE_COLOUR($,#402);
#401=FILL_AREA_STYLE_COLOUR($,#403);
#402=COLOUR_RGB('',0.749019607843137,0.749019607843137,0.749019607843137);
#403=COLOUR_RGB('',0.752941176470588,0.752941176470588,0.752941176470588);
ENDSEC;
END-ISO-10303-21;
