ISO-10303-21;
HEADER;
/* Generated by software containing ST-Developer
 * from STEP Tools, Inc. (www.steptools.com) 
 */

FILE_DESCRIPTION(
/* description */ (''),
/* implementation_level */ '2;1');

FILE_NAME(
/* name */ 
'W:\\PM-PR\\intern\\___produkte_promotion\\3D\\stp\\M\\MZR90179.stp',
/* time_stamp */ '2014-05-06T15:13:56+02:00',
/* author */ ('wattenberg'),
/* organization */ (''),
/* preprocessor_version */ 'ST-DEVELOPER v15.2',
/* originating_system */ 'Autodesk Inventor 2014',
/* authorisation */ '');

FILE_SCHEMA (('AUTOMOTIVE_DESIGN { 1 0 10303 214 3 1 1 }'));
ENDSEC;

DATA;
#10=SHAPE_REPRESENTATION_RELATIONSHIP('SRR','None',#484,#11);
#11=ADVANCED_BREP_SHAPE_REPRESENTATION($,(#237),#475);
#12=(
BOUNDED_CURVE()
B_SPLINE_CURVE(2,(#449,#450,#451),.UNSPECIFIED.,.F.,.F.)
B_SPLINE_CURVE_WITH_KNOTS((3,3),(1.23265779046063,1.53663387667285),
 .UNSPECIFIED.)
CURVE()
GEOMETRIC_REPRESENTATION_ITEM()
RATIONAL_B_SPLINE_CURVE((1.,0.988472034715742,1.))
REPRESENTATION_ITEM($)
);
#13=(
BOUNDED_SURFACE()
B_SPLINE_SURFACE(2,2,((#417,#418,#419,#420,#421,#422,#423,#424,#425),(#426,
#427,#428,#429,#430,#431,#432,#433,#434),(#435,#436,#437,#438,#439,#440,
#441,#442,#443)),.UNSPECIFIED.,.F.,.T.,.F.)
B_SPLINE_SURFACE_WITH_KNOTS((3,3),(3,2,2,2,3),(-1.53663387667285,-1.23265779046063),
(-3.14159265358979,-1.5707963267949,0.,1.5707963267949,3.14159265358979),
 .UNSPECIFIED.)
GEOMETRIC_REPRESENTATION_ITEM()
RATIONAL_B_SPLINE_SURFACE(((1.,0.707106781186548,1.,0.707106781186548,1.,
0.707106781186548,1.,0.707106781186548,1.),(0.988472034715742,0.698955278760766,
0.988472034715742,0.698955278760766,0.988472034715742,0.698955278760766,
0.988472034715742,0.698955278760766,0.988472034715742),(1.,0.707106781186548,
1.,0.707106781186548,1.,0.707106781186548,1.,0.707106781186548,1.)))
REPRESENTATION_ITEM($)
SURFACE()
);
#14=B_SPLINE_CURVE_WITH_KNOTS($,3,(#377,#378,#379,#380,#381,#382,#383,#384,
#385,#386,#387,#388,#389,#390,#391,#392,#393,#394),.UNSPECIFIED.,.F.,.F.,
(4,2,2,2,2,2,2,2,4),(0.151063239470638,0.188828220988146,0.226593202505654,
0.264359840723465,0.302126478941276,0.339893117159087,0.377659755376898,
0.415424736894406,0.453189718411914),.UNSPECIFIED.);
#15=B_SPLINE_CURVE_WITH_KNOTS($,3,(#395,#396,#397,#398,#399,#400,#401,#402,
#403,#404,#405,#406,#407,#408,#409,#410,#411,#412,#413),.UNSPECIFIED.,.F.,
 .F.,(4,2,2,2,3,2,2,2,4),(0.453189718411914,0.490954699929422,0.52871968144693,
0.566486319664741,0.604252957882553,0.642019596100364,0.679786234318175,
0.717551215835683,0.755316197353191),.UNSPECIFIED.);
#16=PLANE($,#254);
#17=PLANE($,#257);
#18=PLANE($,#262);
#19=PLANE($,#266);
#20=PLANE($,#270);
#21=PLANE($,#274);
#22=FACE_BOUND($,#69,.T.);
#23=FACE_BOUND($,#72,.T.);
#24=FACE_BOUND($,#75,.T.);
#25=FACE_BOUND($,#77,.T.);
#26=FACE_BOUND($,#78,.T.);
#27=FACE_BOUND($,#79,.T.);
#28=FACE_BOUND($,#80,.T.);
#29=FACE_BOUND($,#81,.T.);
#30=FACE_BOUND($,#83,.T.);
#31=FACE_BOUND($,#86,.T.);
#32=FACE_BOUND($,#87,.T.);
#33=FACE_BOUND($,#88,.T.);
#34=FACE_BOUND($,#90,.T.);
#35=FACE_BOUND($,#92,.T.);
#36=FACE_BOUND($,#93,.T.);
#37=FACE_BOUND($,#94,.T.);
#38=FACE_BOUND($,#96,.T.);
#39=FACE_BOUND($,#98,.T.);
#40=FACE_BOUND($,#100,.T.);
#41=FACE_BOUND($,#101,.T.);
#42=FACE_BOUND($,#102,.T.);
#43=CYLINDRICAL_SURFACE($,#241,0.5);
#44=CYLINDRICAL_SURFACE($,#245,0.5);
#45=CYLINDRICAL_SURFACE($,#249,0.5);
#46=CYLINDRICAL_SURFACE($,#251,2.85);
#47=CYLINDRICAL_SURFACE($,#255,1.);
#48=CYLINDRICAL_SURFACE($,#260,5.30980360133737);
#49=CYLINDRICAL_SURFACE($,#264,3.25);
#50=CYLINDRICAL_SURFACE($,#268,4.);
#51=CYLINDRICAL_SURFACE($,#272,3.25);
#52=FACE_OUTER_BOUND($,#67,.T.);
#53=FACE_OUTER_BOUND($,#68,.T.);
#54=FACE_OUTER_BOUND($,#70,.T.);
#55=FACE_OUTER_BOUND($,#71,.T.);
#56=FACE_OUTER_BOUND($,#73,.T.);
#57=FACE_OUTER_BOUND($,#74,.T.);
#58=FACE_OUTER_BOUND($,#76,.T.);
#59=FACE_OUTER_BOUND($,#82,.T.);
#60=FACE_OUTER_BOUND($,#84,.T.);
#61=FACE_OUTER_BOUND($,#85,.T.);
#62=FACE_OUTER_BOUND($,#89,.T.);
#63=FACE_OUTER_BOUND($,#91,.T.);
#64=FACE_OUTER_BOUND($,#95,.T.);
#65=FACE_OUTER_BOUND($,#97,.T.);
#66=FACE_OUTER_BOUND($,#99,.T.);
#67=EDGE_LOOP($,(#163));
#68=EDGE_LOOP($,(#164));
#69=EDGE_LOOP($,(#165));
#70=EDGE_LOOP($,(#166));
#71=EDGE_LOOP($,(#167));
#72=EDGE_LOOP($,(#168));
#73=EDGE_LOOP($,(#169));
#74=EDGE_LOOP($,(#170));
#75=EDGE_LOOP($,(#171));
#76=EDGE_LOOP($,(#172));
#77=EDGE_LOOP($,(#173));
#78=EDGE_LOOP($,(#174));
#79=EDGE_LOOP($,(#175));
#80=EDGE_LOOP($,(#176));
#81=EDGE_LOOP($,(#177));
#82=EDGE_LOOP($,(#178,#179));
#83=EDGE_LOOP($,(#180));
#84=EDGE_LOOP($,(#181));
#85=EDGE_LOOP($,(#182,#183,#184,#185));
#86=EDGE_LOOP($,(#186,#187));
#87=EDGE_LOOP($,(#188,#189));
#88=EDGE_LOOP($,(#190));
#89=EDGE_LOOP($,(#191));
#90=EDGE_LOOP($,(#192));
#91=EDGE_LOOP($,(#193));
#92=EDGE_LOOP($,(#194));
#93=EDGE_LOOP($,(#195));
#94=EDGE_LOOP($,(#196));
#95=EDGE_LOOP($,(#197));
#96=EDGE_LOOP($,(#198));
#97=EDGE_LOOP($,(#199));
#98=EDGE_LOOP($,(#200));
#99=EDGE_LOOP($,(#201));
#100=EDGE_LOOP($,(#202));
#101=EDGE_LOOP($,(#203));
#102=EDGE_LOOP($,(#204));
#103=CIRCLE($,#240,0.5);
#104=CIRCLE($,#242,0.5);
#105=CIRCLE($,#244,0.5);
#106=CIRCLE($,#246,0.5);
#107=CIRCLE($,#248,0.5);
#108=CIRCLE($,#250,0.5);
#109=CIRCLE($,#252,2.85);
#110=CIRCLE($,#253,2.85);
#111=CIRCLE($,#256,1.);
#112=CIRCLE($,#258,5.30980360133737);
#113=CIRCLE($,#259,5.30980360133737);
#114=CIRCLE($,#261,5.30980360133737);
#115=CIRCLE($,#263,3.25);
#116=CIRCLE($,#265,3.25);
#117=CIRCLE($,#267,4.);
#118=CIRCLE($,#269,4.);
#119=CIRCLE($,#271,3.25);
#120=CIRCLE($,#273,3.25);
#121=VERTEX_POINT($,#351);
#122=VERTEX_POINT($,#354);
#123=VERTEX_POINT($,#357);
#124=VERTEX_POINT($,#360);
#125=VERTEX_POINT($,#363);
#126=VERTEX_POINT($,#366);
#127=VERTEX_POINT($,#369);
#128=VERTEX_POINT($,#371);
#129=VERTEX_POINT($,#375);
#130=VERTEX_POINT($,#376);
#131=VERTEX_POINT($,#414);
#132=VERTEX_POINT($,#444);
#133=VERTEX_POINT($,#445);
#134=VERTEX_POINT($,#448);
#135=VERTEX_POINT($,#453);
#136=VERTEX_POINT($,#456);
#137=VERTEX_POINT($,#459);
#138=VERTEX_POINT($,#462);
#139=VERTEX_POINT($,#465);
#140=VERTEX_POINT($,#468);
#141=VERTEX_POINT($,#471);
#142=EDGE_CURVE($,#121,#121,#103,.T.);
#143=EDGE_CURVE($,#122,#122,#104,.T.);
#144=EDGE_CURVE($,#123,#123,#105,.T.);
#145=EDGE_CURVE($,#124,#124,#106,.T.);
#146=EDGE_CURVE($,#125,#125,#107,.T.);
#147=EDGE_CURVE($,#126,#126,#108,.T.);
#148=EDGE_CURVE($,#127,#127,#109,.T.);
#149=EDGE_CURVE($,#128,#128,#110,.T.);
#150=EDGE_CURVE($,#129,#130,#14,.T.);
#151=EDGE_CURVE($,#130,#129,#15,.T.);
#152=EDGE_CURVE($,#131,#131,#111,.T.);
#153=EDGE_CURVE($,#132,#133,#112,.T.);
#154=EDGE_CURVE($,#133,#132,#113,.T.);
#155=EDGE_CURVE($,#133,#134,#12,.T.);
#156=EDGE_CURVE($,#135,#135,#114,.T.);
#157=EDGE_CURVE($,#136,#136,#115,.T.);
#158=EDGE_CURVE($,#137,#137,#116,.T.);
#159=EDGE_CURVE($,#138,#138,#117,.T.);
#160=EDGE_CURVE($,#139,#139,#118,.T.);
#161=EDGE_CURVE($,#140,#140,#119,.T.);
#162=EDGE_CURVE($,#141,#141,#120,.T.);
#163=ORIENTED_EDGE($,*,*,#142,.T.);
#164=ORIENTED_EDGE($,*,*,#143,.F.);
#165=ORIENTED_EDGE($,*,*,#142,.F.);
#166=ORIENTED_EDGE($,*,*,#144,.T.);
#167=ORIENTED_EDGE($,*,*,#145,.F.);
#168=ORIENTED_EDGE($,*,*,#144,.F.);
#169=ORIENTED_EDGE($,*,*,#146,.T.);
#170=ORIENTED_EDGE($,*,*,#147,.F.);
#171=ORIENTED_EDGE($,*,*,#146,.F.);
#172=ORIENTED_EDGE($,*,*,#148,.T.);
#173=ORIENTED_EDGE($,*,*,#149,.F.);
#174=ORIENTED_EDGE($,*,*,#147,.T.);
#175=ORIENTED_EDGE($,*,*,#145,.T.);
#176=ORIENTED_EDGE($,*,*,#143,.T.);
#177=ORIENTED_EDGE($,*,*,#148,.F.);
#178=ORIENTED_EDGE($,*,*,#150,.F.);
#179=ORIENTED_EDGE($,*,*,#151,.F.);
#180=ORIENTED_EDGE($,*,*,#152,.T.);
#181=ORIENTED_EDGE($,*,*,#152,.F.);
#182=ORIENTED_EDGE($,*,*,#153,.F.);
#183=ORIENTED_EDGE($,*,*,#154,.F.);
#184=ORIENTED_EDGE($,*,*,#155,.T.);
#185=ORIENTED_EDGE($,*,*,#155,.F.);
#186=ORIENTED_EDGE($,*,*,#150,.T.);
#187=ORIENTED_EDGE($,*,*,#151,.T.);
#188=ORIENTED_EDGE($,*,*,#153,.T.);
#189=ORIENTED_EDGE($,*,*,#154,.T.);
#190=ORIENTED_EDGE($,*,*,#156,.F.);
#191=ORIENTED_EDGE($,*,*,#156,.T.);
#192=ORIENTED_EDGE($,*,*,#157,.F.);
#193=ORIENTED_EDGE($,*,*,#157,.T.);
#194=ORIENTED_EDGE($,*,*,#158,.F.);
#195=ORIENTED_EDGE($,*,*,#158,.T.);
#196=ORIENTED_EDGE($,*,*,#159,.F.);
#197=ORIENTED_EDGE($,*,*,#159,.T.);
#198=ORIENTED_EDGE($,*,*,#160,.F.);
#199=ORIENTED_EDGE($,*,*,#160,.T.);
#200=ORIENTED_EDGE($,*,*,#161,.F.);
#201=ORIENTED_EDGE($,*,*,#161,.T.);
#202=ORIENTED_EDGE($,*,*,#162,.F.);
#203=ORIENTED_EDGE($,*,*,#149,.T.);
#204=ORIENTED_EDGE($,*,*,#162,.T.);
#205=SPHERICAL_SURFACE($,#239,0.5);
#206=SPHERICAL_SURFACE($,#243,0.5);
#207=SPHERICAL_SURFACE($,#247,0.5);
#208=STYLED_ITEM($,(#493),#217);
#209=STYLED_ITEM($,(#493),#218);
#210=STYLED_ITEM($,(#493),#219);
#211=STYLED_ITEM($,(#493),#220);
#212=STYLED_ITEM($,(#493),#221);
#213=STYLED_ITEM($,(#493),#222);
#214=STYLED_ITEM($,(#494),#226);
#215=STYLED_ITEM($,(#494),#227);
#216=STYLED_ITEM($,(#492),#237);
#217=ADVANCED_FACE($,(#52),#205,.T.);
#218=ADVANCED_FACE($,(#53,#22),#43,.T.);
#219=ADVANCED_FACE($,(#54),#206,.T.);
#220=ADVANCED_FACE($,(#55,#23),#44,.T.);
#221=ADVANCED_FACE($,(#56),#207,.T.);
#222=ADVANCED_FACE($,(#57,#24),#45,.T.);
#223=ADVANCED_FACE($,(#58,#25),#46,.F.);
#224=ADVANCED_FACE($,(#26,#27,#28,#29),#16,.T.);
#225=ADVANCED_FACE($,(#59,#30),#47,.F.);
#226=ADVANCED_FACE($,(#60),#17,.F.);
#227=ADVANCED_FACE($,(#61),#13,.F.);
#228=ADVANCED_FACE($,(#31,#32,#33),#48,.T.);
#229=ADVANCED_FACE($,(#62,#34),#18,.T.);
#230=ADVANCED_FACE($,(#63,#35),#49,.T.);
#231=ADVANCED_FACE($,(#36,#37),#19,.T.);
#232=ADVANCED_FACE($,(#64,#38),#50,.T.);
#233=ADVANCED_FACE($,(#65,#39),#20,.T.);
#234=ADVANCED_FACE($,(#66,#40),#51,.T.);
#235=ADVANCED_FACE($,(#41,#42),#21,.T.);
#236=CLOSED_SHELL($,(#217,#218,#219,#220,#221,#222,#223,#224,#225,#226,
#227,#228,#229,#230,#231,#232,#233,#234,#235));
#237=MANIFOLD_SOLID_BREP('Volumenk\X\F6rper1',#236);
#238=AXIS2_PLACEMENT_3D('placement',#349,#275,#276);
#239=AXIS2_PLACEMENT_3D($,#350,#277,#278);
#240=AXIS2_PLACEMENT_3D($,#352,#279,#280);
#241=AXIS2_PLACEMENT_3D($,#353,#281,#282);
#242=AXIS2_PLACEMENT_3D($,#355,#283,#284);
#243=AXIS2_PLACEMENT_3D($,#356,#285,#286);
#244=AXIS2_PLACEMENT_3D($,#358,#287,#288);
#245=AXIS2_PLACEMENT_3D($,#359,#289,#290);
#246=AXIS2_PLACEMENT_3D($,#361,#291,#292);
#247=AXIS2_PLACEMENT_3D($,#362,#293,#294);
#248=AXIS2_PLACEMENT_3D($,#364,#295,#296);
#249=AXIS2_PLACEMENT_3D($,#365,#297,#298);
#250=AXIS2_PLACEMENT_3D($,#367,#299,#300);
#251=AXIS2_PLACEMENT_3D($,#368,#301,#302);
#252=AXIS2_PLACEMENT_3D($,#370,#303,#304);
#253=AXIS2_PLACEMENT_3D($,#372,#305,#306);
#254=AXIS2_PLACEMENT_3D($,#373,#307,#308);
#255=AXIS2_PLACEMENT_3D($,#374,#309,#310);
#256=AXIS2_PLACEMENT_3D($,#415,#311,#312);
#257=AXIS2_PLACEMENT_3D($,#416,#313,#314);
#258=AXIS2_PLACEMENT_3D($,#446,#315,#316);
#259=AXIS2_PLACEMENT_3D($,#447,#317,#318);
#260=AXIS2_PLACEMENT_3D($,#452,#319,#320);
#261=AXIS2_PLACEMENT_3D($,#454,#321,#322);
#262=AXIS2_PLACEMENT_3D($,#455,#323,#324);
#263=AXIS2_PLACEMENT_3D($,#457,#325,#326);
#264=AXIS2_PLACEMENT_3D($,#458,#327,#328);
#265=AXIS2_PLACEMENT_3D($,#460,#329,#330);
#266=AXIS2_PLACEMENT_3D($,#461,#331,#332);
#267=AXIS2_PLACEMENT_3D($,#463,#333,#334);
#268=AXIS2_PLACEMENT_3D($,#464,#335,#336);
#269=AXIS2_PLACEMENT_3D($,#466,#337,#338);
#270=AXIS2_PLACEMENT_3D($,#467,#339,#340);
#271=AXIS2_PLACEMENT_3D($,#469,#341,#342);
#272=AXIS2_PLACEMENT_3D($,#470,#343,#344);
#273=AXIS2_PLACEMENT_3D($,#472,#345,#346);
#274=AXIS2_PLACEMENT_3D($,#473,#347,#348);
#275=DIRECTION('axis',(0.,0.,1.));
#276=DIRECTION('refdir',(1.,0.,0.));
#277=DIRECTION('center_axis',(1.,0.,0.));
#278=DIRECTION('ref_axis',(0.,-1.,0.));
#279=DIRECTION('center_axis',(1.,0.,0.));
#280=DIRECTION('ref_axis',(0.,0.,1.));
#281=DIRECTION('center_axis',(1.,0.,0.));
#282=DIRECTION('ref_axis',(0.,0.,1.));
#283=DIRECTION('center_axis',(-1.,0.,0.));
#284=DIRECTION('ref_axis',(0.,0.,1.));
#285=DIRECTION('center_axis',(1.,0.,0.));
#286=DIRECTION('ref_axis',(0.,-1.,0.));
#287=DIRECTION('center_axis',(1.,0.,0.));
#288=DIRECTION('ref_axis',(0.,0.,1.));
#289=DIRECTION('center_axis',(1.,0.,0.));
#290=DIRECTION('ref_axis',(0.,0.,1.));
#291=DIRECTION('center_axis',(-1.,0.,0.));
#292=DIRECTION('ref_axis',(0.,0.,1.));
#293=DIRECTION('center_axis',(1.,-5.55111512312578E-017,0.));
#294=DIRECTION('ref_axis',(0.,-1.,0.));
#295=DIRECTION('center_axis',(1.,0.,0.));
#296=DIRECTION('ref_axis',(0.,0.,1.));
#297=DIRECTION('center_axis',(1.,0.,0.));
#298=DIRECTION('ref_axis',(0.,0.,1.));
#299=DIRECTION('center_axis',(-1.,0.,0.));
#300=DIRECTION('ref_axis',(0.,0.,1.));
#301=DIRECTION('center_axis',(-1.,0.,0.));
#302=DIRECTION('ref_axis',(0.,0.,1.));
#303=DIRECTION('center_axis',(-1.,0.,0.));
#304=DIRECTION('ref_axis',(0.,0.,1.));
#305=DIRECTION('center_axis',(-1.,0.,0.));
#306=DIRECTION('ref_axis',(0.,0.,1.));
#307=DIRECTION('center_axis',(1.,0.,0.));
#308=DIRECTION('ref_axis',(0.,0.,-1.));
#309=DIRECTION('center_axis',(0.,1.,0.));
#310=DIRECTION('ref_axis',(-1.,0.,0.));
#311=DIRECTION('center_axis',(0.,1.,0.));
#312=DIRECTION('ref_axis',(-1.,0.,0.));
#313=DIRECTION('center_axis',(0.,1.,0.));
#314=DIRECTION('ref_axis',(-1.,0.,0.));
#315=DIRECTION('center_axis',(1.,0.,0.));
#316=DIRECTION('ref_axis',(0.,0.,-1.));
#317=DIRECTION('center_axis',(1.,0.,0.));
#318=DIRECTION('ref_axis',(0.,0.,-1.));
#319=DIRECTION('center_axis',(1.,0.,0.));
#320=DIRECTION('ref_axis',(0.,1.,0.));
#321=DIRECTION('center_axis',(1.,0.,0.));
#322=DIRECTION('ref_axis',(0.,0.,-1.));
#323=DIRECTION('center_axis',(1.,0.,0.));
#324=DIRECTION('ref_axis',(0.,0.,-1.));
#325=DIRECTION('center_axis',(1.,0.,0.));
#326=DIRECTION('ref_axis',(0.,0.,-1.));
#327=DIRECTION('center_axis',(1.,0.,0.));
#328=DIRECTION('ref_axis',(0.,1.,0.));
#329=DIRECTION('center_axis',(1.,0.,0.));
#330=DIRECTION('ref_axis',(0.,0.,-1.));
#331=DIRECTION('center_axis',(-1.,0.,0.));
#332=DIRECTION('ref_axis',(0.,0.,1.));
#333=DIRECTION('center_axis',(1.,0.,0.));
#334=DIRECTION('ref_axis',(0.,0.,-1.));
#335=DIRECTION('center_axis',(1.,0.,0.));
#336=DIRECTION('ref_axis',(0.,1.,0.));
#337=DIRECTION('center_axis',(1.,0.,0.));
#338=DIRECTION('ref_axis',(0.,0.,-1.));
#339=DIRECTION('center_axis',(1.,0.,0.));
#340=DIRECTION('ref_axis',(0.,0.,-1.));
#341=DIRECTION('center_axis',(1.,0.,0.));
#342=DIRECTION('ref_axis',(0.,0.,-1.));
#343=DIRECTION('center_axis',(1.,0.,0.));
#344=DIRECTION('ref_axis',(0.,1.,0.));
#345=DIRECTION('center_axis',(1.,0.,0.));
#346=DIRECTION('ref_axis',(0.,0.,-1.));
#347=DIRECTION('center_axis',(1.,0.,0.));
#348=DIRECTION('ref_axis',(0.,0.,-1.));
#349=CARTESIAN_POINT('',(0.,0.,0.));
#350=CARTESIAN_POINT('Origin',(30.7782957041749,-1.86102642616055,2.0818995585505E-016));
#351=CARTESIAN_POINT('',(30.7782957041749,-1.86102642616055,-0.5));
#352=CARTESIAN_POINT('Origin',(30.7782957041749,-1.86102642616055,2.0818995585505E-016));
#353=CARTESIAN_POINT('Origin',(26.2782957041749,-1.86102642616055,2.0818995585505E-016));
#354=CARTESIAN_POINT('',(26.2782957041749,-1.86102642616055,-0.5));
#355=CARTESIAN_POINT('Origin',(26.2782957041749,-1.86102642616055,2.0818995585505E-016));
#356=CARTESIAN_POINT('Origin',(30.7782957041749,1.53897357383945,0.));
#357=CARTESIAN_POINT('',(30.7782957041749,1.53897357383945,-0.5));
#358=CARTESIAN_POINT('Origin',(30.7782957041749,1.53897357383945,0.));
#359=CARTESIAN_POINT('Origin',(26.2782957041749,1.53897357383945,0.));
#360=CARTESIAN_POINT('',(26.2782957041749,1.53897357383945,-0.5));
#361=CARTESIAN_POINT('Origin',(26.2782957041749,1.53897357383945,0.));
#362=CARTESIAN_POINT('Origin',(30.7782957041749,-0.16102642616055,1.7));
#363=CARTESIAN_POINT('',(30.7782957041749,-0.16102642616055,1.2));
#364=CARTESIAN_POINT('Origin',(30.7782957041749,-0.16102642616055,1.7));
#365=CARTESIAN_POINT('Origin',(26.2782957041749,-0.16102642616055,1.7));
#366=CARTESIAN_POINT('',(26.2782957041749,-0.16102642616055,1.2));
#367=CARTESIAN_POINT('Origin',(26.2782957041749,-0.16102642616055,1.7));
#368=CARTESIAN_POINT('Origin',(31.2782957041749,-0.16102642616055,0.));
#369=CARTESIAN_POINT('',(26.2782957041749,-0.16102642616055,-2.85));
#370=CARTESIAN_POINT('Origin',(26.2782957041749,-0.16102642616055,0.));
#371=CARTESIAN_POINT('',(31.2782957041749,-0.16102642616055,-2.85));
#372=CARTESIAN_POINT('Origin',(31.2782957041749,-0.16102642616055,0.));
#373=CARTESIAN_POINT('Origin',(26.2782957041749,-0.16102642616055,1.1024105475015E-016));
#374=CARTESIAN_POINT('Origin',(5.37698800125092,-4.97083002749792,0.));
#375=CARTESIAN_POINT('',(6.37698800125092,-5.47083002749792,0.));
#376=CARTESIAN_POINT('',(4.37698800125092,-5.47083002749792,0.));
#377=CARTESIAN_POINT('Ctrl Pts',(6.37698800125093,-5.47083002749792,1.38777878078145E-016));
#378=CARTESIAN_POINT('Ctrl Pts',(6.37698800125093,-5.47083002749792,-0.125883271725026));
#379=CARTESIAN_POINT('Ctrl Pts',(6.35176876791851,-5.46589990535917,-0.259953870810912));
#380=CARTESIAN_POINT('Ctrl Pts',(6.24962086141928,-5.44808356643449,-0.506246423747139));
#381=CARTESIAN_POINT('Ctrl Pts',(6.17270862770891,-5.43544345153168,-0.618492935915107));
#382=CARTESIAN_POINT('Ctrl Pts',(5.99547704979264,-5.41162940760884,-0.79572451383138));
#383=CARTESIAN_POINT('Ctrl Pts',(5.88323219505354,-5.39888997215419,-0.872633700741791));
#384=CARTESIAN_POINT('Ctrl Pts',(5.63694537840233,-5.38084531875882,-0.974779396718448));
#385=CARTESIAN_POINT('Ctrl Pts',(5.50287679531029,-5.37581446449684,-1.));
#386=CARTESIAN_POINT('Ctrl Pts',(5.25109920719155,-5.37581446449684,-1.));
#387=CARTESIAN_POINT('Ctrl Pts',(5.11703062409952,-5.38084531875882,-0.974779396718448));
#388=CARTESIAN_POINT('Ctrl Pts',(4.87074380744831,-5.39888997215419,-0.872633700741792));
#389=CARTESIAN_POINT('Ctrl Pts',(4.75849895270921,-5.41162940760884,-0.795724513831381));
#390=CARTESIAN_POINT('Ctrl Pts',(4.58126737479294,-5.43544345153168,-0.618492935915107));
#391=CARTESIAN_POINT('Ctrl Pts',(4.50435514108257,-5.44808356643449,-0.50624642374714));
#392=CARTESIAN_POINT('Ctrl Pts',(4.40220723458333,-5.46589990535917,-0.259953870810913));
#393=CARTESIAN_POINT('Ctrl Pts',(4.37698800125092,-5.47083002749792,-0.125883271725027));
#394=CARTESIAN_POINT('Ctrl Pts',(4.37698800125092,-5.47083002749792,-2.42861286636753E-016));
#395=CARTESIAN_POINT('Ctrl Pts',(4.37698800125092,-5.47083002749792,-1.38777878078145E-016));
#396=CARTESIAN_POINT('Ctrl Pts',(4.37698800125092,-5.47083002749792,0.125883271725026));
#397=CARTESIAN_POINT('Ctrl Pts',(4.40220723458333,-5.46589990535917,0.259953870810912));
#398=CARTESIAN_POINT('Ctrl Pts',(4.50435514108256,-5.44808356643449,0.506246423747139));
#399=CARTESIAN_POINT('Ctrl Pts',(4.58126737479294,-5.43544345153168,0.618492935915107));
#400=CARTESIAN_POINT('Ctrl Pts',(4.75849895270921,-5.41162940760884,0.795724513831381));
#401=CARTESIAN_POINT('Ctrl Pts',(4.87074380744831,-5.39888997215419,0.87263370074179));
#402=CARTESIAN_POINT('Ctrl Pts',(5.11703062409952,-5.38084531875882,0.974779396718448));
#403=CARTESIAN_POINT('Ctrl Pts',(5.25109920719155,-5.37581446449684,1.));
#404=CARTESIAN_POINT('Ctrl Pts',(5.37698800125092,-5.37581446449684,1.));
#405=CARTESIAN_POINT('Ctrl Pts',(5.50287679531029,-5.37581446449684,1.));
#406=CARTESIAN_POINT('Ctrl Pts',(5.63694537840233,-5.38084531875882,0.974779396718448));
#407=CARTESIAN_POINT('Ctrl Pts',(5.88323219505354,-5.39888997215419,0.872633700741791));
#408=CARTESIAN_POINT('Ctrl Pts',(5.99547704979264,-5.41162940760884,0.795724513831381));
#409=CARTESIAN_POINT('Ctrl Pts',(6.17270862770891,-5.43544345153168,0.618492935915107));
#410=CARTESIAN_POINT('Ctrl Pts',(6.24962086141928,-5.44808356643449,0.50624642374714));
#411=CARTESIAN_POINT('Ctrl Pts',(6.35176876791851,-5.46589990535917,0.259953870810913));
#412=CARTESIAN_POINT('Ctrl Pts',(6.37698800125092,-5.47083002749792,0.125883271725027));
#413=CARTESIAN_POINT('Ctrl Pts',(6.37698800125092,-5.47083002749792,1.04083408558608E-016));
#414=CARTESIAN_POINT('',(4.37698800125092,-4.47083002749792,0.));
#415=CARTESIAN_POINT('Origin',(5.37698800125092,-4.47083002749792,0.));
#416=CARTESIAN_POINT('Origin',(5.37698800125092,-4.47083002749792,0.));
#417=CARTESIAN_POINT('Ctrl Pts',(2.27829570417489,-0.16102642616055,0.));
#418=CARTESIAN_POINT('Ctrl Pts',(2.27829570417489,-0.16102642616055,0.));
#419=CARTESIAN_POINT('Ctrl Pts',(2.27829570417489,-0.16102642616055,0.));
#420=CARTESIAN_POINT('Ctrl Pts',(2.27829570417489,-0.16102642616055,0.));
#421=CARTESIAN_POINT('Ctrl Pts',(2.27829570417489,-0.16102642616055,0.));
#422=CARTESIAN_POINT('Ctrl Pts',(2.27829570417489,-0.16102642616055,0.));
#423=CARTESIAN_POINT('Ctrl Pts',(2.27829570417489,-0.16102642616055,0.));
#424=CARTESIAN_POINT('Ctrl Pts',(2.27829570417489,-0.16102642616055,0.));
#425=CARTESIAN_POINT('Ctrl Pts',(2.27829570417489,-0.16102642616055,0.));
#426=CARTESIAN_POINT('Ctrl Pts',(2.37164629203491,-0.16102642616055,2.73148644346744));
#427=CARTESIAN_POINT('Ctrl Pts',(2.37164629203491,-2.89251286962799,2.73148644346744));
#428=CARTESIAN_POINT('Ctrl Pts',(2.37164629203491,-2.89251286962799,0.));
#429=CARTESIAN_POINT('Ctrl Pts',(2.37164629203491,-2.89251286962799,-2.73148644346744));
#430=CARTESIAN_POINT('Ctrl Pts',(2.37164629203491,-0.16102642616055,-2.73148644346744));
#431=CARTESIAN_POINT('Ctrl Pts',(2.37164629203491,2.57046001730689,-2.73148644346744));
#432=CARTESIAN_POINT('Ctrl Pts',(2.37164629203491,2.57046001730689,0.));
#433=CARTESIAN_POINT('Ctrl Pts',(2.37164629203491,2.57046001730689,2.73148644346744));
#434=CARTESIAN_POINT('Ctrl Pts',(2.37164629203491,-0.16102642616055,2.73148644346744));
#435=CARTESIAN_POINT('Ctrl Pts',(3.27829570417489,-0.16102642616055,5.30980360133737));
#436=CARTESIAN_POINT('Ctrl Pts',(3.27829570417489,-5.47083002749791,5.30980360133737));
#437=CARTESIAN_POINT('Ctrl Pts',(3.27829570417489,-5.47083002749792,0.));
#438=CARTESIAN_POINT('Ctrl Pts',(3.27829570417489,-5.47083002749791,-5.30980360133737));
#439=CARTESIAN_POINT('Ctrl Pts',(3.27829570417489,-0.16102642616055,-5.30980360133737));
#440=CARTESIAN_POINT('Ctrl Pts',(3.27829570417489,5.14877717517682,-5.30980360133737));
#441=CARTESIAN_POINT('Ctrl Pts',(3.27829570417489,5.14877717517682,0.));
#442=CARTESIAN_POINT('Ctrl Pts',(3.27829570417489,5.14877717517682,5.30980360133737));
#443=CARTESIAN_POINT('Ctrl Pts',(3.27829570417489,-0.16102642616055,5.30980360133737));
#444=CARTESIAN_POINT('',(3.27829570417488,5.14877717517682,0.));
#445=CARTESIAN_POINT('',(3.27829570417489,-0.16102642616055,5.30980360133737));
#446=CARTESIAN_POINT('Origin',(3.27829570417488,-0.16102642616055,0.));
#447=CARTESIAN_POINT('Origin',(3.27829570417488,-0.16102642616055,0.));
#448=CARTESIAN_POINT('',(2.27829570417488,-0.16102642616055,0.));
#449=CARTESIAN_POINT('Ctrl Pts',(3.27829570417489,-0.16102642616055,5.30980360133737));
#450=CARTESIAN_POINT('Ctrl Pts',(2.37164629203491,-0.16102642616055,2.73148644346744));
#451=CARTESIAN_POINT('Ctrl Pts',(2.27829570417489,-0.16102642616055,0.));
#452=CARTESIAN_POINT('Origin',(13.2782957041749,-0.16102642616055,0.));
#453=CARTESIAN_POINT('',(23.2782957041749,5.14877717517682,0.));
#454=CARTESIAN_POINT('Origin',(23.2782957041749,-0.16102642616055,0.));
#455=CARTESIAN_POINT('Origin',(23.2782957041749,3.08897357383945,0.));
#456=CARTESIAN_POINT('',(23.2782957041749,3.08897357383945,0.));
#457=CARTESIAN_POINT('Origin',(23.2782957041749,-0.16102642616055,0.));
#458=CARTESIAN_POINT('Origin',(24.2782957041749,-0.16102642616055,0.));
#459=CARTESIAN_POINT('',(25.2782957041749,3.08897357383945,0.));
#460=CARTESIAN_POINT('Origin',(25.2782957041749,-0.16102642616055,0.));
#461=CARTESIAN_POINT('Origin',(25.2782957041749,3.83897357383945,0.));
#462=CARTESIAN_POINT('',(25.2782957041749,3.83897357383945,0.));
#463=CARTESIAN_POINT('Origin',(25.2782957041749,-0.16102642616055,0.));
#464=CARTESIAN_POINT('Origin',(26.7782957041749,-0.16102642616055,0.));
#465=CARTESIAN_POINT('',(28.2782957041749,3.83897357383945,0.));
#466=CARTESIAN_POINT('Origin',(28.2782957041749,-0.16102642616055,0.));
#467=CARTESIAN_POINT('Origin',(28.2782957041749,3.08897357383945,0.));
#468=CARTESIAN_POINT('',(28.2782957041749,3.08897357383945,0.));
#469=CARTESIAN_POINT('Origin',(28.2782957041749,-0.16102642616055,0.));
#470=CARTESIAN_POINT('Origin',(29.7782957041749,-0.16102642616055,0.));
#471=CARTESIAN_POINT('',(31.2782957041749,3.08897357383945,0.));
#472=CARTESIAN_POINT('Origin',(31.2782957041749,-0.16102642616055,0.));
#473=CARTESIAN_POINT('Origin',(31.2782957041749,-0.16102642616055,0.));
#474=UNCERTAINTY_MEASURE_WITH_UNIT(LENGTH_MEASURE(0.01),#476,
'DISTANCE_ACCURACY_VALUE',
'Maximum model space distance between geometric entities at asserted c
onnectivities');
#475=(
GEOMETRIC_REPRESENTATION_CONTEXT(3)
GLOBAL_UNCERTAINTY_ASSIGNED_CONTEXT((#474))
GLOBAL_UNIT_ASSIGNED_CONTEXT((#476,#479,#477))
REPRESENTATION_CONTEXT('','3D')
);
#476=(
LENGTH_UNIT()
NAMED_UNIT(*)
SI_UNIT(.MILLI.,.METRE.)
);
#477=(
NAMED_UNIT(*)
SI_UNIT($,.STERADIAN.)
SOLID_ANGLE_UNIT()
);
#478=DIMENSIONAL_EXPONENTS(0.,0.,0.,0.,0.,0.,0.);
#479=(
CONVERSION_BASED_UNIT('degree',#481)
NAMED_UNIT(#478)
PLANE_ANGLE_UNIT()
);
#480=(
NAMED_UNIT(*)
PLANE_ANGLE_UNIT()
SI_UNIT($,.RADIAN.)
);
#481=PLANE_ANGLE_MEASURE_WITH_UNIT(PLANE_ANGLE_MEASURE(0.01745329252),#480);
#482=SHAPE_DEFINITION_REPRESENTATION(#483,#484);
#483=PRODUCT_DEFINITION_SHAPE('',$,#486);
#484=SHAPE_REPRESENTATION('',(#238),#475);
#485=PRODUCT_DEFINITION_CONTEXT('3D Mechanical Parts',#489,'design');
#486=PRODUCT_DEFINITION('MZR90179','MZR90179',#487,#485);
#487=PRODUCT_DEFINITION_FORMATION('',$,#491);
#488=APPLICATION_PROTOCOL_DEFINITION('international standard',
'automotive_design',2009,#489);
#489=APPLICATION_CONTEXT(
'Core Data for Automotive Mechanical Design Process');
#490=PRODUCT_CONTEXT('3D Mechanical Parts',#489,'mechanical');
#491=PRODUCT('MZR90179','MZR90179',$,(#490));
#492=PRESENTATION_STYLE_ASSIGNMENT((#495));
#493=PRESENTATION_STYLE_ASSIGNMENT((#496));
#494=PRESENTATION_STYLE_ASSIGNMENT((#497));
#495=SURFACE_STYLE_USAGE(.BOTH.,#498);
#496=SURFACE_STYLE_USAGE(.BOTH.,#499);
#497=SURFACE_STYLE_USAGE(.BOTH.,#500);
#498=SURFACE_SIDE_STYLE($,(#501));
#499=SURFACE_SIDE_STYLE($,(#502));
#500=SURFACE_SIDE_STYLE($,(#503));
#501=SURFACE_STYLE_FILL_AREA(#504);
#502=SURFACE_STYLE_FILL_AREA(#505);
#503=SURFACE_STYLE_FILL_AREA(#506);
#504=FILL_AREA_STYLE($,(#507));
#505=FILL_AREA_STYLE($,(#508));
#506=FILL_AREA_STYLE($,(#509));
#507=FILL_AREA_STYLE_COLOUR($,#510);
#508=FILL_AREA_STYLE_COLOUR($,#511);
#509=FILL_AREA_STYLE_COLOUR($,#512);
#510=COLOUR_RGB('',0.745098039215686,0.737254901960784,0.729411764705882);
#511=COLOUR_RGB('',0.796078431372549,0.603921568627451,0.231372549019608);
#512=COLOUR_RGB('',0.866666666666667,0.866666666666667,0.0509803921568627);
ENDSEC;
END-ISO-10303-21;
