ISO-10303-21;
HEADER;
/* Generated by software containing ST-Developer
 * from STEP Tools, Inc. (www.steptools.com) 
 */

FILE_DESCRIPTION(
/* description */ (''),
/* implementation_level */ '2;1');

FILE_NAME(
/* name */ 
'C:\\Users\\mitarbeiter\\Desktop\\3D\\Imported Components\\LT207001\\L
T207001.stp',
/* time_stamp */ '2016-10-06T14:07:25+02:00',
/* author */ ('mitarbeiter'),
/* organization */ (''),
/* preprocessor_version */ 'ST-DEVELOPER v15.2',
/* originating_system */ 'Autodesk Inventor 2014',
/* authorisation */ '');

FILE_SCHEMA (('AUTOMOTIVE_DESIGN { 1 0 10303 214 3 1 1 }'));
ENDSEC;

DATA;
#10=ITEM_DEFINED_TRANSFORMATION($,$,#309,#361);
#11=(
REPRESENTATION_RELATIONSHIP($,$,#567,#568)
REPRESENTATION_RELATIONSHIP_WITH_TRANSFORMATION(#10)
SHAPE_REPRESENTATION_RELATIONSHIP()
);
#12=CONTEXT_DEPENDENT_SHAPE_REPRESENTATION(#11,#566);
#13=NEXT_ASSEMBLY_USAGE_OCCURRENCE('LT207001',$,$,#571,#570,$);
#14=SHAPE_REPRESENTATION_RELATIONSHIP('SRR','None',#567,#15);
#15=ADVANCED_BREP_SHAPE_REPRESENTATION($,(#308),#557);
#16=STYLED_ITEM($,(#579),#308);
#17=PLANE($,#350);
#18=PLANE($,#351);
#19=PLANE($,#352);
#20=PLANE($,#353);
#21=PLANE($,#354);
#22=PLANE($,#355);
#23=PLANE($,#356);
#24=PLANE($,#357);
#25=PLANE($,#358);
#26=PLANE($,#359);
#27=LINE($,#529,#31);
#28=LINE($,#532,#32);
#29=LINE($,#542,#33);
#30=LINE($,#545,#34);
#31=VECTOR($,#432,15.);
#32=VECTOR($,#435,15.);
#33=VECTOR($,#448,3.3166247903554);
#34=VECTOR($,#453,3.3166247903554);
#35=CYLINDRICAL_SURFACE($,#322,1.1);
#36=CYLINDRICAL_SURFACE($,#325,1.6);
#37=CYLINDRICAL_SURFACE($,#328,1.1);
#38=CYLINDRICAL_SURFACE($,#330,1.1);
#39=CYLINDRICAL_SURFACE($,#331,1.1);
#40=CYLINDRICAL_SURFACE($,#333,1.1);
#41=CYLINDRICAL_SURFACE($,#335,1.1);
#42=CYLINDRICAL_SURFACE($,#336,0.75);
#43=CYLINDRICAL_SURFACE($,#339,0.75);
#44=CYLINDRICAL_SURFACE($,#342,3.);
#45=CYLINDRICAL_SURFACE($,#345,2.25);
#46=CYLINDRICAL_SURFACE($,#348,1.1);
#47=FACE_BOUND($,#96,.T.);
#48=FACE_BOUND($,#98,.T.);
#49=FACE_BOUND($,#100,.T.);
#50=FACE_BOUND($,#102,.T.);
#51=FACE_BOUND($,#104,.T.);
#52=FACE_BOUND($,#106,.T.);
#53=FACE_BOUND($,#108,.T.);
#54=FACE_BOUND($,#110,.T.);
#55=FACE_BOUND($,#112,.T.);
#56=FACE_BOUND($,#114,.T.);
#57=FACE_BOUND($,#116,.T.);
#58=FACE_BOUND($,#118,.T.);
#59=FACE_BOUND($,#120,.T.);
#60=FACE_BOUND($,#123,.T.);
#61=FACE_BOUND($,#125,.T.);
#62=FACE_BOUND($,#127,.T.);
#63=FACE_BOUND($,#128,.T.);
#64=FACE_BOUND($,#130,.T.);
#65=FACE_BOUND($,#131,.T.);
#66=FACE_BOUND($,#133,.T.);
#67=FACE_BOUND($,#138,.T.);
#68=FACE_BOUND($,#140,.T.);
#69=FACE_OUTER_BOUND($,#95,.T.);
#70=FACE_OUTER_BOUND($,#97,.T.);
#71=FACE_OUTER_BOUND($,#99,.T.);
#72=FACE_OUTER_BOUND($,#101,.T.);
#73=FACE_OUTER_BOUND($,#103,.T.);
#74=FACE_OUTER_BOUND($,#105,.T.);
#75=FACE_OUTER_BOUND($,#107,.T.);
#76=FACE_OUTER_BOUND($,#109,.T.);
#77=FACE_OUTER_BOUND($,#111,.T.);
#78=FACE_OUTER_BOUND($,#113,.T.);
#79=FACE_OUTER_BOUND($,#115,.T.);
#80=FACE_OUTER_BOUND($,#117,.T.);
#81=FACE_OUTER_BOUND($,#119,.T.);
#82=FACE_OUTER_BOUND($,#121,.T.);
#83=FACE_OUTER_BOUND($,#122,.T.);
#84=FACE_OUTER_BOUND($,#124,.T.);
#85=FACE_OUTER_BOUND($,#126,.T.);
#86=FACE_OUTER_BOUND($,#129,.T.);
#87=FACE_OUTER_BOUND($,#132,.T.);
#88=FACE_OUTER_BOUND($,#134,.T.);
#89=FACE_OUTER_BOUND($,#135,.T.);
#90=FACE_OUTER_BOUND($,#136,.T.);
#91=FACE_OUTER_BOUND($,#137,.T.);
#92=FACE_OUTER_BOUND($,#139,.T.);
#93=FACE_OUTER_BOUND($,#141,.T.);
#94=FACE_OUTER_BOUND($,#142,.T.);
#95=EDGE_LOOP($,(#221));
#96=EDGE_LOOP($,(#222));
#97=EDGE_LOOP($,(#223));
#98=EDGE_LOOP($,(#224));
#99=EDGE_LOOP($,(#225));
#100=EDGE_LOOP($,(#226));
#101=EDGE_LOOP($,(#227));
#102=EDGE_LOOP($,(#228));
#103=EDGE_LOOP($,(#229));
#104=EDGE_LOOP($,(#230));
#105=EDGE_LOOP($,(#231));
#106=EDGE_LOOP($,(#232));
#107=EDGE_LOOP($,(#233));
#108=EDGE_LOOP($,(#234));
#109=EDGE_LOOP($,(#235));
#110=EDGE_LOOP($,(#236));
#111=EDGE_LOOP($,(#237));
#112=EDGE_LOOP($,(#238));
#113=EDGE_LOOP($,(#239));
#114=EDGE_LOOP($,(#240));
#115=EDGE_LOOP($,(#241));
#116=EDGE_LOOP($,(#242));
#117=EDGE_LOOP($,(#243));
#118=EDGE_LOOP($,(#244));
#119=EDGE_LOOP($,(#245));
#120=EDGE_LOOP($,(#246));
#121=EDGE_LOOP($,(#247,#248,#249,#250));
#122=EDGE_LOOP($,(#251));
#123=EDGE_LOOP($,(#252));
#124=EDGE_LOOP($,(#253));
#125=EDGE_LOOP($,(#254));
#126=EDGE_LOOP($,(#255,#256));
#127=EDGE_LOOP($,(#257));
#128=EDGE_LOOP($,(#258));
#129=EDGE_LOOP($,(#259));
#130=EDGE_LOOP($,(#260));
#131=EDGE_LOOP($,(#261));
#132=EDGE_LOOP($,(#262,#263));
#133=EDGE_LOOP($,(#264));
#134=EDGE_LOOP($,(#265));
#135=EDGE_LOOP($,(#266));
#136=EDGE_LOOP($,(#267));
#137=EDGE_LOOP($,(#268));
#138=EDGE_LOOP($,(#269));
#139=EDGE_LOOP($,(#270));
#140=EDGE_LOOP($,(#271));
#141=EDGE_LOOP($,(#272));
#142=EDGE_LOOP($,(#273,#274,#275,#276));
#143=CIRCLE($,#311,1.1);
#144=CIRCLE($,#312,1.1);
#145=CIRCLE($,#314,1.1);
#146=CIRCLE($,#315,1.1);
#147=CIRCLE($,#317,1.1);
#148=CIRCLE($,#318,1.1);
#149=CIRCLE($,#320,1.1);
#150=CIRCLE($,#321,1.1);
#151=CIRCLE($,#323,1.1);
#152=CIRCLE($,#324,1.1);
#153=CIRCLE($,#326,1.6);
#154=CIRCLE($,#327,1.6);
#155=CIRCLE($,#329,1.1);
#156=CIRCLE($,#332,1.1);
#157=CIRCLE($,#334,1.1);
#158=CIRCLE($,#337,0.75);
#159=CIRCLE($,#338,0.75);
#160=CIRCLE($,#340,0.75);
#161=CIRCLE($,#341,0.75);
#162=CIRCLE($,#343,3.);
#163=CIRCLE($,#344,3.);
#164=CIRCLE($,#346,2.25);
#165=CIRCLE($,#347,2.25);
#166=CIRCLE($,#349,1.1);
#167=VERTEX_POINT($,#474);
#168=VERTEX_POINT($,#476);
#169=VERTEX_POINT($,#479);
#170=VERTEX_POINT($,#481);
#171=VERTEX_POINT($,#484);
#172=VERTEX_POINT($,#486);
#173=VERTEX_POINT($,#489);
#174=VERTEX_POINT($,#491);
#175=VERTEX_POINT($,#494);
#176=VERTEX_POINT($,#496);
#177=VERTEX_POINT($,#499);
#178=VERTEX_POINT($,#501);
#179=VERTEX_POINT($,#504);
#180=VERTEX_POINT($,#508);
#181=VERTEX_POINT($,#511);
#182=VERTEX_POINT($,#515);
#183=VERTEX_POINT($,#517);
#184=VERTEX_POINT($,#520);
#185=VERTEX_POINT($,#522);
#186=VERTEX_POINT($,#525);
#187=VERTEX_POINT($,#526);
#188=VERTEX_POINT($,#528);
#189=VERTEX_POINT($,#530);
#190=VERTEX_POINT($,#534);
#191=VERTEX_POINT($,#536);
#192=VERTEX_POINT($,#539);
#193=EDGE_CURVE($,#167,#167,#143,.T.);
#194=EDGE_CURVE($,#168,#168,#144,.T.);
#195=EDGE_CURVE($,#169,#169,#145,.T.);
#196=EDGE_CURVE($,#170,#170,#146,.T.);
#197=EDGE_CURVE($,#171,#171,#147,.T.);
#198=EDGE_CURVE($,#172,#172,#148,.T.);
#199=EDGE_CURVE($,#173,#173,#149,.T.);
#200=EDGE_CURVE($,#174,#174,#150,.T.);
#201=EDGE_CURVE($,#175,#175,#151,.T.);
#202=EDGE_CURVE($,#176,#176,#152,.T.);
#203=EDGE_CURVE($,#177,#177,#153,.T.);
#204=EDGE_CURVE($,#178,#178,#154,.T.);
#205=EDGE_CURVE($,#179,#179,#155,.T.);
#206=EDGE_CURVE($,#180,#180,#156,.T.);
#207=EDGE_CURVE($,#181,#181,#157,.T.);
#208=EDGE_CURVE($,#182,#182,#158,.T.);
#209=EDGE_CURVE($,#183,#183,#159,.T.);
#210=EDGE_CURVE($,#184,#184,#160,.T.);
#211=EDGE_CURVE($,#185,#185,#161,.T.);
#212=EDGE_CURVE($,#186,#187,#162,.T.);
#213=EDGE_CURVE($,#187,#188,#27,.T.);
#214=EDGE_CURVE($,#189,#188,#163,.T.);
#215=EDGE_CURVE($,#189,#186,#28,.T.);
#216=EDGE_CURVE($,#190,#190,#164,.T.);
#217=EDGE_CURVE($,#191,#191,#165,.T.);
#218=EDGE_CURVE($,#192,#192,#166,.T.);
#219=EDGE_CURVE($,#186,#187,#29,.T.);
#220=EDGE_CURVE($,#189,#188,#30,.T.);
#221=ORIENTED_EDGE($,*,*,#193,.T.);
#222=ORIENTED_EDGE($,*,*,#194,.F.);
#223=ORIENTED_EDGE($,*,*,#195,.T.);
#224=ORIENTED_EDGE($,*,*,#196,.F.);
#225=ORIENTED_EDGE($,*,*,#197,.T.);
#226=ORIENTED_EDGE($,*,*,#198,.F.);
#227=ORIENTED_EDGE($,*,*,#199,.T.);
#228=ORIENTED_EDGE($,*,*,#200,.F.);
#229=ORIENTED_EDGE($,*,*,#201,.F.);
#230=ORIENTED_EDGE($,*,*,#202,.F.);
#231=ORIENTED_EDGE($,*,*,#203,.T.);
#232=ORIENTED_EDGE($,*,*,#204,.F.);
#233=ORIENTED_EDGE($,*,*,#193,.F.);
#234=ORIENTED_EDGE($,*,*,#205,.T.);
#235=ORIENTED_EDGE($,*,*,#194,.T.);
#236=ORIENTED_EDGE($,*,*,#195,.F.);
#237=ORIENTED_EDGE($,*,*,#196,.T.);
#238=ORIENTED_EDGE($,*,*,#206,.F.);
#239=ORIENTED_EDGE($,*,*,#197,.F.);
#240=ORIENTED_EDGE($,*,*,#207,.T.);
#241=ORIENTED_EDGE($,*,*,#198,.T.);
#242=ORIENTED_EDGE($,*,*,#199,.F.);
#243=ORIENTED_EDGE($,*,*,#208,.F.);
#244=ORIENTED_EDGE($,*,*,#209,.T.);
#245=ORIENTED_EDGE($,*,*,#210,.F.);
#246=ORIENTED_EDGE($,*,*,#211,.T.);
#247=ORIENTED_EDGE($,*,*,#212,.T.);
#248=ORIENTED_EDGE($,*,*,#213,.T.);
#249=ORIENTED_EDGE($,*,*,#214,.F.);
#250=ORIENTED_EDGE($,*,*,#215,.T.);
#251=ORIENTED_EDGE($,*,*,#216,.T.);
#252=ORIENTED_EDGE($,*,*,#217,.F.);
#253=ORIENTED_EDGE($,*,*,#200,.T.);
#254=ORIENTED_EDGE($,*,*,#218,.T.);
#255=ORIENTED_EDGE($,*,*,#212,.F.);
#256=ORIENTED_EDGE($,*,*,#219,.T.);
#257=ORIENTED_EDGE($,*,*,#205,.F.);
#258=ORIENTED_EDGE($,*,*,#207,.F.);
#259=ORIENTED_EDGE($,*,*,#217,.T.);
#260=ORIENTED_EDGE($,*,*,#209,.F.);
#261=ORIENTED_EDGE($,*,*,#211,.F.);
#262=ORIENTED_EDGE($,*,*,#214,.T.);
#263=ORIENTED_EDGE($,*,*,#220,.F.);
#264=ORIENTED_EDGE($,*,*,#216,.F.);
#265=ORIENTED_EDGE($,*,*,#210,.T.);
#266=ORIENTED_EDGE($,*,*,#208,.T.);
#267=ORIENTED_EDGE($,*,*,#206,.T.);
#268=ORIENTED_EDGE($,*,*,#203,.F.);
#269=ORIENTED_EDGE($,*,*,#218,.F.);
#270=ORIENTED_EDGE($,*,*,#204,.T.);
#271=ORIENTED_EDGE($,*,*,#201,.T.);
#272=ORIENTED_EDGE($,*,*,#202,.T.);
#273=ORIENTED_EDGE($,*,*,#215,.F.);
#274=ORIENTED_EDGE($,*,*,#220,.T.);
#275=ORIENTED_EDGE($,*,*,#213,.F.);
#276=ORIENTED_EDGE($,*,*,#219,.F.);
#277=TOROIDAL_SURFACE($,#310,4.,1.1);
#278=TOROIDAL_SURFACE($,#313,4.,1.1);
#279=TOROIDAL_SURFACE($,#316,4.,1.1);
#280=TOROIDAL_SURFACE($,#319,4.,1.1);
#281=ADVANCED_FACE($,(#69,#47),#277,.T.);
#282=ADVANCED_FACE($,(#70,#48),#278,.T.);
#283=ADVANCED_FACE($,(#71,#49),#279,.T.);
#284=ADVANCED_FACE($,(#72,#50),#280,.T.);
#285=ADVANCED_FACE($,(#73,#51),#35,.T.);
#286=ADVANCED_FACE($,(#74,#52),#36,.T.);
#287=ADVANCED_FACE($,(#75,#53),#37,.T.);
#288=ADVANCED_FACE($,(#76,#54),#38,.T.);
#289=ADVANCED_FACE($,(#77,#55),#39,.T.);
#290=ADVANCED_FACE($,(#78,#56),#40,.T.);
#291=ADVANCED_FACE($,(#79,#57),#41,.T.);
#292=ADVANCED_FACE($,(#80,#58),#42,.F.);
#293=ADVANCED_FACE($,(#81,#59),#43,.F.);
#294=ADVANCED_FACE($,(#82),#44,.T.);
#295=ADVANCED_FACE($,(#83,#60),#45,.T.);
#296=ADVANCED_FACE($,(#84,#61),#46,.T.);
#297=ADVANCED_FACE($,(#85,#62,#63),#17,.F.);
#298=ADVANCED_FACE($,(#86,#64,#65),#18,.F.);
#299=ADVANCED_FACE($,(#87,#66),#19,.F.);
#300=ADVANCED_FACE($,(#88),#20,.T.);
#301=ADVANCED_FACE($,(#89),#21,.T.);
#302=ADVANCED_FACE($,(#90),#22,.T.);
#303=ADVANCED_FACE($,(#91,#67),#23,.F.);
#304=ADVANCED_FACE($,(#92,#68),#24,.T.);
#305=ADVANCED_FACE($,(#93),#25,.T.);
#306=ADVANCED_FACE($,(#94),#26,.F.);
#307=CLOSED_SHELL($,(#281,#282,#283,#284,#285,#286,#287,#288,#289,#290,
#291,#292,#293,#294,#295,#296,#297,#298,#299,#300,#301,#302,#303,#304,#305,
#306));
#308=MANIFOLD_SOLID_BREP('NONE',#307);
#309=AXIS2_PLACEMENT_3D('placement',#472,#362,#363);
#310=AXIS2_PLACEMENT_3D($,#473,#364,#365);
#311=AXIS2_PLACEMENT_3D($,#475,#366,#367);
#312=AXIS2_PLACEMENT_3D($,#477,#368,#369);
#313=AXIS2_PLACEMENT_3D($,#478,#370,#371);
#314=AXIS2_PLACEMENT_3D($,#480,#372,#373);
#315=AXIS2_PLACEMENT_3D($,#482,#374,#375);
#316=AXIS2_PLACEMENT_3D($,#483,#376,#377);
#317=AXIS2_PLACEMENT_3D($,#485,#378,#379);
#318=AXIS2_PLACEMENT_3D($,#487,#380,#381);
#319=AXIS2_PLACEMENT_3D($,#488,#382,#383);
#320=AXIS2_PLACEMENT_3D($,#490,#384,#385);
#321=AXIS2_PLACEMENT_3D($,#492,#386,#387);
#322=AXIS2_PLACEMENT_3D($,#493,#388,#389);
#323=AXIS2_PLACEMENT_3D($,#495,#390,#391);
#324=AXIS2_PLACEMENT_3D($,#497,#392,#393);
#325=AXIS2_PLACEMENT_3D($,#498,#394,#395);
#326=AXIS2_PLACEMENT_3D($,#500,#396,#397);
#327=AXIS2_PLACEMENT_3D($,#502,#398,#399);
#328=AXIS2_PLACEMENT_3D($,#503,#400,#401);
#329=AXIS2_PLACEMENT_3D($,#505,#402,#403);
#330=AXIS2_PLACEMENT_3D($,#506,#404,#405);
#331=AXIS2_PLACEMENT_3D($,#507,#406,#407);
#332=AXIS2_PLACEMENT_3D($,#509,#408,#409);
#333=AXIS2_PLACEMENT_3D($,#510,#410,#411);
#334=AXIS2_PLACEMENT_3D($,#512,#412,#413);
#335=AXIS2_PLACEMENT_3D($,#513,#414,#415);
#336=AXIS2_PLACEMENT_3D($,#514,#416,#417);
#337=AXIS2_PLACEMENT_3D($,#516,#418,#419);
#338=AXIS2_PLACEMENT_3D($,#518,#420,#421);
#339=AXIS2_PLACEMENT_3D($,#519,#422,#423);
#340=AXIS2_PLACEMENT_3D($,#521,#424,#425);
#341=AXIS2_PLACEMENT_3D($,#523,#426,#427);
#342=AXIS2_PLACEMENT_3D($,#524,#428,#429);
#343=AXIS2_PLACEMENT_3D($,#527,#430,#431);
#344=AXIS2_PLACEMENT_3D($,#531,#433,#434);
#345=AXIS2_PLACEMENT_3D($,#533,#436,#437);
#346=AXIS2_PLACEMENT_3D($,#535,#438,#439);
#347=AXIS2_PLACEMENT_3D($,#537,#440,#441);
#348=AXIS2_PLACEMENT_3D($,#538,#442,#443);
#349=AXIS2_PLACEMENT_3D($,#540,#444,#445);
#350=AXIS2_PLACEMENT_3D($,#541,#446,#447);
#351=AXIS2_PLACEMENT_3D($,#543,#449,#450);
#352=AXIS2_PLACEMENT_3D($,#544,#451,#452);
#353=AXIS2_PLACEMENT_3D($,#546,#454,#455);
#354=AXIS2_PLACEMENT_3D($,#547,#456,#457);
#355=AXIS2_PLACEMENT_3D($,#548,#458,#459);
#356=AXIS2_PLACEMENT_3D($,#549,#460,#461);
#357=AXIS2_PLACEMENT_3D($,#550,#462,#463);
#358=AXIS2_PLACEMENT_3D($,#551,#464,#465);
#359=AXIS2_PLACEMENT_3D($,#552,#466,#467);
#360=AXIS2_PLACEMENT_3D('placement',#553,#468,#469);
#361=AXIS2_PLACEMENT_3D($,#554,#470,#471);
#362=DIRECTION('axis',(0.,0.,1.));
#363=DIRECTION('refdir',(1.,0.,0.));
#364=DIRECTION('center_axis',(-1.,0.,0.));
#365=DIRECTION('ref_axis',(0.,0.,1.));
#366=DIRECTION('center_axis',(0.,-6.37765983815003E-018,-1.));
#367=DIRECTION('ref_axis',(0.,1.,-6.37765983815003E-018));
#368=DIRECTION('center_axis',(0.,-0.573462344363328,-0.819231920519041));
#369=DIRECTION('ref_axis',(0.,0.819231920519041,-0.573462344363328));
#370=DIRECTION('center_axis',(1.,0.,0.));
#371=DIRECTION('ref_axis',(0.,0.,-1.));
#372=DIRECTION('center_axis',(0.,-0.573462344363328,-0.819231920519041));
#373=DIRECTION('ref_axis',(0.,0.819231920519041,-0.573462344363328));
#374=DIRECTION('center_axis',(0.,-1.11022302462516E-016,-1.));
#375=DIRECTION('ref_axis',(0.,1.,-1.11022302462516E-016));
#376=DIRECTION('center_axis',(1.,0.,0.));
#377=DIRECTION('ref_axis',(0.,0.,-1.));
#378=DIRECTION('center_axis',(0.,-6.37765983815003E-018,-1.));
#379=DIRECTION('ref_axis',(0.,1.,-6.37765983815003E-018));
#380=DIRECTION('center_axis',(0.,0.573462344363328,-0.819231920519041));
#381=DIRECTION('ref_axis',(0.,0.819231920519041,0.573462344363328));
#382=DIRECTION('center_axis',(-1.,0.,0.));
#383=DIRECTION('ref_axis',(0.,0.,1.));
#384=DIRECTION('center_axis',(0.,0.573462344363328,-0.819231920519041));
#385=DIRECTION('ref_axis',(0.,0.819231920519041,0.573462344363328));
#386=DIRECTION('center_axis',(0.,1.11022302462516E-016,-1.));
#387=DIRECTION('ref_axis',(0.,1.,1.11022302462516E-016));
#388=DIRECTION('center_axis',(0.,0.,-1.));
#389=DIRECTION('ref_axis',(-1.,0.,0.));
#390=DIRECTION('center_axis',(0.,0.,1.));
#391=DIRECTION('ref_axis',(-1.,0.,0.));
#392=DIRECTION('center_axis',(0.,1.11022302462516E-016,-1.));
#393=DIRECTION('ref_axis',(0.,1.,1.11022302462516E-016));
#394=DIRECTION('center_axis',(0.,0.,-1.));
#395=DIRECTION('ref_axis',(-1.,0.,0.));
#396=DIRECTION('center_axis',(0.,0.,-1.));
#397=DIRECTION('ref_axis',(-1.,0.,0.));
#398=DIRECTION('center_axis',(0.,0.,-1.));
#399=DIRECTION('ref_axis',(-1.,0.,0.));
#400=DIRECTION('center_axis',(0.,0.,1.));
#401=DIRECTION('ref_axis',(1.,0.,0.));
#402=DIRECTION('center_axis',(0.,-6.37765983815003E-018,-1.));
#403=DIRECTION('ref_axis',(0.,1.,-6.37765983815003E-018));
#404=DIRECTION('center_axis',(0.,-0.573462344363328,-0.81923192051904));
#405=DIRECTION('ref_axis',(0.,0.81923192051904,-0.573462344363328));
#406=DIRECTION('center_axis',(0.,0.,-1.));
#407=DIRECTION('ref_axis',(-1.,0.,0.));
#408=DIRECTION('center_axis',(0.,-1.11022302462516E-016,-1.));
#409=DIRECTION('ref_axis',(0.,1.,-1.11022302462516E-016));
#410=DIRECTION('center_axis',(0.,-8.69887641932963E-017,1.));
#411=DIRECTION('ref_axis',(0.,-1.,-8.69887641932963E-017));
#412=DIRECTION('center_axis',(0.,-6.37765983815003E-018,-1.));
#413=DIRECTION('ref_axis',(0.,1.,-6.37765983815003E-018));
#414=DIRECTION('center_axis',(0.,0.573462344363328,-0.819231920519041));
#415=DIRECTION('ref_axis',(0.,0.819231920519041,0.573462344363328));
#416=DIRECTION('center_axis',(0.,0.,1.));
#417=DIRECTION('ref_axis',(1.,0.,0.));
#418=DIRECTION('center_axis',(0.,0.,1.));
#419=DIRECTION('ref_axis',(1.,0.,0.));
#420=DIRECTION('center_axis',(0.,0.,1.));
#421=DIRECTION('ref_axis',(1.,0.,0.));
#422=DIRECTION('center_axis',(0.,0.,1.));
#423=DIRECTION('ref_axis',(1.,0.,0.));
#424=DIRECTION('center_axis',(0.,0.,1.));
#425=DIRECTION('ref_axis',(1.,0.,0.));
#426=DIRECTION('center_axis',(0.,0.,1.));
#427=DIRECTION('ref_axis',(1.,0.,0.));
#428=DIRECTION('center_axis',(0.,-6.37765983815003E-018,1.));
#429=DIRECTION('ref_axis',(0.,-1.,-6.37765983815003E-018));
#430=DIRECTION('center_axis',(0.,-6.37765983815003E-018,1.));
#431=DIRECTION('ref_axis',(0.,-1.,-6.37765983815003E-018));
#432=DIRECTION($,(0.,-6.37765983815003E-018,1.));
#433=DIRECTION('center_axis',(0.,-6.37765983815003E-018,1.));
#434=DIRECTION('ref_axis',(0.,-1.,-6.37765983815003E-018));
#435=DIRECTION($,(0.,6.37765983815003E-018,-1.));
#436=DIRECTION('center_axis',(0.,-6.37765983815003E-018,1.));
#437=DIRECTION('ref_axis',(0.,-1.,-6.37765983815003E-018));
#438=DIRECTION('center_axis',(0.,-6.37765983815003E-018,1.));
#439=DIRECTION('ref_axis',(0.,-1.,-6.37765983815003E-018));
#440=DIRECTION('center_axis',(0.,-6.37765983815003E-018,1.));
#441=DIRECTION('ref_axis',(0.,-1.,-6.37765983815003E-018));
#442=DIRECTION('center_axis',(0.,0.,-1.));
#443=DIRECTION('ref_axis',(-1.,0.,0.));
#444=DIRECTION('center_axis',(0.,0.,1.));
#445=DIRECTION('ref_axis',(-1.,0.,0.));
#446=DIRECTION('center_axis',(0.,-6.37765983815003E-018,1.));
#447=DIRECTION('ref_axis',(0.,-1.,0.));
#448=DIRECTION($,(0.,-1.,-6.37765983815003E-018));
#449=DIRECTION('center_axis',(0.,6.37765983815003E-018,-1.));
#450=DIRECTION('ref_axis',(0.,1.,6.37765983815002E-018));
#451=DIRECTION('center_axis',(0.,6.37765983815003E-018,-1.));
#452=DIRECTION('ref_axis',(0.,1.,0.));
#453=DIRECTION($,(0.,-1.,0.));
#454=DIRECTION('center_axis',(0.,0.,1.));
#455=DIRECTION('ref_axis',(1.,0.,0.));
#456=DIRECTION('center_axis',(0.,0.,1.));
#457=DIRECTION('ref_axis',(1.,0.,0.));
#458=DIRECTION('center_axis',(0.,-1.11022302462516E-016,-1.));
#459=DIRECTION('ref_axis',(0.,1.,0.));
#460=DIRECTION('center_axis',(0.,0.,-1.));
#461=DIRECTION('ref_axis',(-1.,0.,0.));
#462=DIRECTION('center_axis',(0.,0.,-1.));
#463=DIRECTION('ref_axis',(-1.,0.,0.));
#464=DIRECTION('center_axis',(0.,1.11022302462516E-016,-1.));
#465=DIRECTION('ref_axis',(0.,1.,0.));
#466=DIRECTION('center_axis',(-1.,0.,0.));
#467=DIRECTION('ref_axis',(0.,0.,1.));
#468=DIRECTION('axis',(0.,0.,1.));
#469=DIRECTION('refdir',(1.,0.,0.));
#470=DIRECTION($,(0.,0.,1.));
#471=DIRECTION($,(1.,0.,0.));
#472=CARTESIAN_POINT('',(0.,0.,0.));
#473=CARTESIAN_POINT('Origin',(0.,-6.1,-20.7391110767236));
#474=CARTESIAN_POINT('',(1.1,-2.1,-20.7391110767236));
#475=CARTESIAN_POINT('Origin',(0.,-2.1,-20.7391110767236));
#476=CARTESIAN_POINT('',(1.34706698920462E-016,-3.72422743049478,-22.4021518753773));
#477=CARTESIAN_POINT('Origin',(0.,-2.82307231792384,-23.0329604541769));
#478=CARTESIAN_POINT('Origin',(0.,-1.6,-28.2608889232764));
#479=CARTESIAN_POINT('',(0.,-3.97577256950522,-26.5978481246228));
#480=CARTESIAN_POINT('Origin',(0.,-4.87692768207616,-25.9670395458231));
#481=CARTESIAN_POINT('',(-1.1,-5.6,-28.2608889232764));
#482=CARTESIAN_POINT('Origin',(0.,-5.6,-28.2608889232764));
#483=CARTESIAN_POINT('Origin',(0.,4.2,-20.7391110767236));
#484=CARTESIAN_POINT('',(1.34706698920462E-016,1.3,-20.7391110767236));
#485=CARTESIAN_POINT('Origin',(0.,0.200000000000001,-20.7391110767236));
#486=CARTESIAN_POINT('',(0.,1.82422743049478,-22.4021518753773));
#487=CARTESIAN_POINT('Origin',(0.,0.923072317923839,-23.0329604541769));
#488=CARTESIAN_POINT('Origin',(0.,-0.3,-28.2608889232764));
#489=CARTESIAN_POINT('',(1.34706698920462E-016,2.07577256950522,-26.5978481246228));
#490=CARTESIAN_POINT('Origin',(0.,2.97692768207616,-25.9670395458231));
#491=CARTESIAN_POINT('',(-1.1,3.7,-28.2608889232764));
#492=CARTESIAN_POINT('Origin',(0.,3.7,-28.2608889232764));
#493=CARTESIAN_POINT('Origin',(0.,3.7,-28.2608889232764));
#494=CARTESIAN_POINT('',(-1.1,3.7,-59.));
#495=CARTESIAN_POINT('Origin',(0.,3.7,-59.));
#496=CARTESIAN_POINT('',(-1.1,3.7,-67.));
#497=CARTESIAN_POINT('Origin',(0.,3.7,-67.));
#498=CARTESIAN_POINT('Origin',(0.,3.7,-29.));
#499=CARTESIAN_POINT('',(-1.6,3.7,-29.));
#500=CARTESIAN_POINT('Origin',(0.,3.7,-29.));
#501=CARTESIAN_POINT('',(-1.6,3.7,-59.));
#502=CARTESIAN_POINT('Origin',(0.,3.7,-59.));
#503=CARTESIAN_POINT('Origin',(0.,-2.1,-20.7391110767236));
#504=CARTESIAN_POINT('',(1.1,-2.1,-17.));
#505=CARTESIAN_POINT('Origin',(0.,-2.1,-17.));
#506=CARTESIAN_POINT('Origin',(0.,-2.82307231792384,-23.0329604541769));
#507=CARTESIAN_POINT('Origin',(0.,-5.6,-28.2608889232764));
#508=CARTESIAN_POINT('',(-1.1,-5.6,-67.));
#509=CARTESIAN_POINT('Origin',(0.,-5.6,-67.));
#510=CARTESIAN_POINT('Origin',(0.,0.200000000000001,-20.7391110767236));
#511=CARTESIAN_POINT('',(0.,-0.9,-17.));
#512=CARTESIAN_POINT('Origin',(0.,0.2,-17.));
#513=CARTESIAN_POINT('Origin',(0.,0.923072317923839,-23.0329604541769));
#514=CARTESIAN_POINT('Origin',(0.,-1.9,-0.1));
#515=CARTESIAN_POINT('',(0.75,-1.9,-0.1));
#516=CARTESIAN_POINT('Origin',(0.,-1.9,-0.1));
#517=CARTESIAN_POINT('',(0.75,-1.9,0.));
#518=CARTESIAN_POINT('Origin',(0.,-1.9,0.));
#519=CARTESIAN_POINT('Origin',(0.,0.,-0.1));
#520=CARTESIAN_POINT('',(0.75,0.,-0.1));
#521=CARTESIAN_POINT('Origin',(0.,0.,-0.1));
#522=CARTESIAN_POINT('',(0.75,0.,0.));
#523=CARTESIAN_POINT('Origin',(0.,0.,0.));
#524=CARTESIAN_POINT('Origin',(0.,-0.95,-2.57167334302699E-016));
#525=CARTESIAN_POINT('',(2.5,0.708312395177703,-17.));
#526=CARTESIAN_POINT('',(2.5,-2.6083123951777,-17.));
#527=CARTESIAN_POINT('Origin',(0.,-0.95,-17.));
#528=CARTESIAN_POINT('',(2.5,-2.6083123951777,-2.));
#529=CARTESIAN_POINT($,(2.5,-2.6083123951777,-2.6774348666453E-016));
#530=CARTESIAN_POINT('',(2.5,0.708312395177703,-2.));
#531=CARTESIAN_POINT('Origin',(0.,-0.95,-2.));
#532=CARTESIAN_POINT($,(2.5,0.708312395177703,-2.46591181940868E-016));
#533=CARTESIAN_POINT('Origin',(0.,-0.95,-2.57167334302699E-016));
#534=CARTESIAN_POINT('',(0.,-3.2,-2.));
#535=CARTESIAN_POINT('Origin',(0.,-0.95,-2.));
#536=CARTESIAN_POINT('',(0.,-3.2,-2.86994692716751E-017));
#537=CARTESIAN_POINT('Origin',(0.,-0.95,-1.43497346358376E-017));
#538=CARTESIAN_POINT('Origin',(0.,3.7,-28.2608889232764));
#539=CARTESIAN_POINT('',(-1.1,3.7,-29.));
#540=CARTESIAN_POINT('Origin',(0.,3.7,-29.));
#541=CARTESIAN_POINT('Origin',(0.,2.05,-17.));
#542=CARTESIAN_POINT($,(2.5,2.05,-17.));
#543=CARTESIAN_POINT('Origin',(0.,1.3,-1.21408799833431E-016));
#544=CARTESIAN_POINT('Origin',(0.,1.3,-2.));
#545=CARTESIAN_POINT($,(2.5,0.708312395177703,-2.));
#546=CARTESIAN_POINT('Origin',(0.,0.,-0.1));
#547=CARTESIAN_POINT('Origin',(0.,-1.9,-0.1));
#548=CARTESIAN_POINT('Origin',(0.,-5.6,-67.));
#549=CARTESIAN_POINT('Origin',(0.,3.7,-29.));
#550=CARTESIAN_POINT('Origin',(0.,3.7,-59.));
#551=CARTESIAN_POINT('Origin',(0.,3.7,-67.));
#552=CARTESIAN_POINT('Origin',(2.5,0.708312395177703,-67.));
#553=CARTESIAN_POINT('',(0.,0.,0.));
#554=CARTESIAN_POINT($,(0.,0.,0.));
#555=UNCERTAINTY_MEASURE_WITH_UNIT(LENGTH_MEASURE(0.01),#559,
'DISTANCE_ACCURACY_VALUE',
'Maximum model space distance between geometric entities at asserted c
onnectivities');
#556=UNCERTAINTY_MEASURE_WITH_UNIT(LENGTH_MEASURE(0.01),#559,
'DISTANCE_ACCURACY_VALUE',
'Maximum model space distance between geometric entities at asserted c
onnectivities');
#557=(
GEOMETRIC_REPRESENTATION_CONTEXT(3)
GLOBAL_UNCERTAINTY_ASSIGNED_CONTEXT((#555))
GLOBAL_UNIT_ASSIGNED_CONTEXT((#559,#561,#560))
REPRESENTATION_CONTEXT('','3D')
);
#558=(
GEOMETRIC_REPRESENTATION_CONTEXT(3)
GLOBAL_UNCERTAINTY_ASSIGNED_CONTEXT((#556))
GLOBAL_UNIT_ASSIGNED_CONTEXT((#559,#561,#560))
REPRESENTATION_CONTEXT('','3D')
);
#559=(
LENGTH_UNIT()
NAMED_UNIT(*)
SI_UNIT(.MILLI.,.METRE.)
);
#560=(
NAMED_UNIT(*)
SI_UNIT($,.STERADIAN.)
SOLID_ANGLE_UNIT()
);
#561=(
NAMED_UNIT(*)
PLANE_ANGLE_UNIT()
SI_UNIT($,.RADIAN.)
);
#562=SHAPE_DEFINITION_REPRESENTATION(#564,#567);
#563=SHAPE_DEFINITION_REPRESENTATION(#565,#568);
#564=PRODUCT_DEFINITION_SHAPE('',$,#570);
#565=PRODUCT_DEFINITION_SHAPE('',$,#571);
#566=PRODUCT_DEFINITION_SHAPE($,$,#13);
#567=SHAPE_REPRESENTATION('',(#309),#557);
#568=SHAPE_REPRESENTATION('',(#360,#361),#558);
#569=PRODUCT_DEFINITION_CONTEXT('3D Mechanical Parts',#575,'design');
#570=PRODUCT_DEFINITION('LT207001_','LT207001_',#572,#569);
#571=PRODUCT_DEFINITION('LT207001','LT207001',#573,#569);
#572=PRODUCT_DEFINITION_FORMATION('',$,#577);
#573=PRODUCT_DEFINITION_FORMATION('',$,#578);
#574=APPLICATION_PROTOCOL_DEFINITION('international standard',
'automotive_design',2009,#575);
#575=APPLICATION_CONTEXT(
'Core Data for Automotive Mechanical Design Process');
#576=PRODUCT_CONTEXT('3D Mechanical Parts',#575,'mechanical');
#577=PRODUCT('LT207001_','LT207001_',$,(#576));
#578=PRODUCT('LT207001','LT207001',$,(#576));
#579=PRESENTATION_STYLE_ASSIGNMENT((#580));
#580=SURFACE_STYLE_USAGE(.BOTH.,#581);
#581=SURFACE_SIDE_STYLE($,(#582));
#582=SURFACE_STYLE_FILL_AREA(#583);
#583=FILL_AREA_STYLE($,(#584));
#584=FILL_AREA_STYLE_COLOUR($,#585);
#585=COLOUR_RGB('',0.749019607843137,0.749019607843137,0.749019607843137);
ENDSEC;
END-ISO-10303-21;
