ISO-10303-21;
HEADER;
/* Generated by software containing ST-Developer
 * from STEP Tools, Inc. (www.steptools.com) 
 */

FILE_DESCRIPTION(
/* description */ (''),
/* implementation_level */ '2;1');

FILE_NAME(
/* name */ 
'C:\\Users\\mitarbeiter\\Desktop\\3D\\Imported Components\\IBR40181\\I
BR40181.stp',
/* time_stamp */ '2016-10-04T14:04:26+02:00',
/* author */ ('mitarbeiter'),
/* organization */ (''),
/* preprocessor_version */ 'ST-DEVELOPER v15.2',
/* originating_system */ 'Autodesk Inventor 2014',
/* authorisation */ '');

FILE_SCHEMA (('AUTOMOTIVE_DESIGN { 1 0 10303 214 3 1 1 }'));
ENDSEC;

DATA;
#10=SHAPE_REPRESENTATION_RELATIONSHIP('SRR','None',#190,#11);
#11=ADVANCED_BREP_SHAPE_REPRESENTATION($,(#87),#184);
#12=STYLED_ITEM($,(#198),#87);
#13=PLANE($,#98);
#14=PLANE($,#99);
#15=PLANE($,#100);
#16=SPHERICAL_SURFACE($,#97,0.5);
#17=FACE_BOUND($,#32,.T.);
#18=FACE_BOUND($,#33,.T.);
#19=FACE_BOUND($,#35,.T.);
#20=FACE_BOUND($,#37,.T.);
#21=FACE_BOUND($,#41,.T.);
#22=B_SPLINE_CURVE_WITH_KNOTS($,3,(#133,#134,#135,#136,#137,#138,#139,#140,
#141,#142,#143,#144,#145,#146,#147,#148,#149,#150),.UNSPECIFIED.,.F.,.F.,
(4,2,2,2,2,2,2,2,4),(-0.302737420105954,-0.283815008504195,-0.264892596902436,
-0.245972830990951,-0.227053065079465,-0.20813329916798,-0.189213533256494,
-0.170291121654735,-0.151368710052977),.UNSPECIFIED.);
#23=B_SPLINE_CURVE_WITH_KNOTS($,3,(#151,#152,#153,#154,#155,#156,#157,#158,
#159,#160,#161,#162,#163,#164,#165,#166,#167,#168),.UNSPECIFIED.,.F.,.F.,
(4,2,2,2,2,2,2,2,4),(-0.151368710052977,-0.132446298451218,-0.113523886849459,
-0.0946041209379739,-0.0756843550264883,-0.0567645891150028,-0.0378448232035173,
-0.0189224116017586,0.),.UNSPECIFIED.);
#24=FACE_OUTER_BOUND($,#31,.T.);
#25=FACE_OUTER_BOUND($,#34,.T.);
#26=FACE_OUTER_BOUND($,#36,.T.);
#27=FACE_OUTER_BOUND($,#38,.T.);
#28=FACE_OUTER_BOUND($,#39,.T.);
#29=FACE_OUTER_BOUND($,#40,.T.);
#30=FACE_OUTER_BOUND($,#42,.T.);
#31=EDGE_LOOP($,(#62));
#32=EDGE_LOOP($,(#63,#64));
#33=EDGE_LOOP($,(#65));
#34=EDGE_LOOP($,(#66));
#35=EDGE_LOOP($,(#67));
#36=EDGE_LOOP($,(#68));
#37=EDGE_LOOP($,(#69,#70));
#38=EDGE_LOOP($,(#71));
#39=EDGE_LOOP($,(#72));
#40=EDGE_LOOP($,(#73));
#41=EDGE_LOOP($,(#74));
#42=EDGE_LOOP($,(#75));
#43=CIRCLE($,#90,2.);
#44=CIRCLE($,#91,2.);
#45=CIRCLE($,#93,1.75);
#46=CIRCLE($,#94,1.75);
#47=CIRCLE($,#96,0.5);
#48=VERTEX_POINT($,#129);
#49=VERTEX_POINT($,#131);
#50=VERTEX_POINT($,#132);
#51=VERTEX_POINT($,#169);
#52=VERTEX_POINT($,#172);
#53=VERTEX_POINT($,#174);
#54=VERTEX_POINT($,#177);
#55=EDGE_CURVE($,#48,#48,#43,.T.);
#56=EDGE_CURVE($,#49,#50,#22,.T.);
#57=EDGE_CURVE($,#50,#49,#23,.T.);
#58=EDGE_CURVE($,#51,#51,#44,.T.);
#59=EDGE_CURVE($,#52,#52,#45,.T.);
#60=EDGE_CURVE($,#53,#53,#46,.T.);
#61=EDGE_CURVE($,#54,#54,#47,.T.);
#62=ORIENTED_EDGE($,*,*,#55,.F.);
#63=ORIENTED_EDGE($,*,*,#56,.T.);
#64=ORIENTED_EDGE($,*,*,#57,.T.);
#65=ORIENTED_EDGE($,*,*,#58,.F.);
#66=ORIENTED_EDGE($,*,*,#59,.F.);
#67=ORIENTED_EDGE($,*,*,#60,.F.);
#68=ORIENTED_EDGE($,*,*,#61,.T.);
#69=ORIENTED_EDGE($,*,*,#56,.F.);
#70=ORIENTED_EDGE($,*,*,#57,.F.);
#71=ORIENTED_EDGE($,*,*,#61,.F.);
#72=ORIENTED_EDGE($,*,*,#60,.T.);
#73=ORIENTED_EDGE($,*,*,#58,.T.);
#74=ORIENTED_EDGE($,*,*,#59,.T.);
#75=ORIENTED_EDGE($,*,*,#55,.T.);
#76=CYLINDRICAL_SURFACE($,#89,2.);
#77=CYLINDRICAL_SURFACE($,#92,1.75);
#78=CYLINDRICAL_SURFACE($,#95,0.5);
#79=ADVANCED_FACE($,(#24,#17,#18),#76,.T.);
#80=ADVANCED_FACE($,(#25,#19),#77,.T.);
#81=ADVANCED_FACE($,(#26,#20),#78,.F.);
#82=ADVANCED_FACE($,(#27),#16,.T.);
#83=ADVANCED_FACE($,(#28),#13,.T.);
#84=ADVANCED_FACE($,(#29,#21),#14,.T.);
#85=ADVANCED_FACE($,(#30),#15,.T.);
#86=CLOSED_SHELL($,(#79,#80,#81,#82,#83,#84,#85));
#87=MANIFOLD_SOLID_BREP('1',#86);
#88=AXIS2_PLACEMENT_3D('placement',#127,#101,#102);
#89=AXIS2_PLACEMENT_3D($,#128,#103,#104);
#90=AXIS2_PLACEMENT_3D($,#130,#105,#106);
#91=AXIS2_PLACEMENT_3D($,#170,#107,#108);
#92=AXIS2_PLACEMENT_3D($,#171,#109,#110);
#93=AXIS2_PLACEMENT_3D($,#173,#111,#112);
#94=AXIS2_PLACEMENT_3D($,#175,#113,#114);
#95=AXIS2_PLACEMENT_3D($,#176,#115,#116);
#96=AXIS2_PLACEMENT_3D($,#178,#117,#118);
#97=AXIS2_PLACEMENT_3D($,#179,#119,#120);
#98=AXIS2_PLACEMENT_3D($,#180,#121,#122);
#99=AXIS2_PLACEMENT_3D($,#181,#123,#124);
#100=AXIS2_PLACEMENT_3D($,#182,#125,#126);
#101=DIRECTION('axis',(0.,0.,1.));
#102=DIRECTION('refdir',(1.,0.,0.));
#103=DIRECTION('center_axis',(0.,-1.,0.));
#104=DIRECTION('ref_axis',(1.,0.,0.));
#105=DIRECTION('center_axis',(0.,1.,0.));
#106=DIRECTION('ref_axis',(1.,0.,0.));
#107=DIRECTION('center_axis',(0.,-1.,0.));
#108=DIRECTION('ref_axis',(1.,0.,0.));
#109=DIRECTION('center_axis',(0.,-1.,0.));
#110=DIRECTION('ref_axis',(1.,0.,0.));
#111=DIRECTION('center_axis',(0.,1.,0.));
#112=DIRECTION('ref_axis',(1.,0.,0.));
#113=DIRECTION('center_axis',(0.,-1.,0.));
#114=DIRECTION('ref_axis',(1.,0.,0.));
#115=DIRECTION('center_axis',(0.,0.,-1.));
#116=DIRECTION('ref_axis',(1.,0.,0.));
#117=DIRECTION('center_axis',(0.,0.,-1.));
#118=DIRECTION('ref_axis',(1.,0.,0.));
#119=DIRECTION('center_axis',(1.83692975339606E-016,0.,1.));
#120=DIRECTION('ref_axis',(1.,0.,0.));
#121=DIRECTION('center_axis',(0.,-1.,0.));
#122=DIRECTION('ref_axis',(-1.,0.,0.));
#123=DIRECTION('center_axis',(0.,-1.,0.));
#124=DIRECTION('ref_axis',(-1.,0.,0.));
#125=DIRECTION('center_axis',(0.,1.,0.));
#126=DIRECTION('ref_axis',(1.,0.,0.));
#127=CARTESIAN_POINT('',(0.,0.,0.));
#128=CARTESIAN_POINT('Origin',(0.,-12.5,0.));
#129=CARTESIAN_POINT('',(-2.,0.,-2.44921270764475E-016));
#130=CARTESIAN_POINT('Origin',(0.,0.,0.));
#131=CARTESIAN_POINT('',(0.5,-18.,1.93649167310371));
#132=CARTESIAN_POINT('',(-0.5,-18.,1.93649167310371));
#133=CARTESIAN_POINT('Ctrl Pts',(0.5,-18.,1.93649167310371));
#134=CARTESIAN_POINT('Ctrl Pts',(0.5,-18.0630747053392,1.93649167310371));
#135=CARTESIAN_POINT('Ctrl Pts',(0.487339527044977,-18.1301608540052,1.93989431732842));
#136=CARTESIAN_POINT('Ctrl Pts',(0.436231992558068,-18.2532653425152,1.95202238889465));
#137=CARTESIAN_POINT('Ctrl Pts',(0.397798553912909,-18.3093082272736,1.96055530258171));
#138=CARTESIAN_POINT('Ctrl Pts',(0.309314413535764,-18.3977923676508,1.97644752333872));
#139=CARTESIAN_POINT('Ctrl Pts',(0.253268952301022,-18.4362306296536,1.98486251890168));
#140=CARTESIAN_POINT('Ctrl Pts',(0.130155327908247,-18.487341685515,1.99671830048978));
#141=CARTESIAN_POINT('Ctrl Pts',(0.0630658863716182,-18.5,2.));
#142=CARTESIAN_POINT('Ctrl Pts',(-0.0630658863716185,-18.5,2.));
#143=CARTESIAN_POINT('Ctrl Pts',(-0.130155327908246,-18.487341685515,1.99671830048978));
#144=CARTESIAN_POINT('Ctrl Pts',(-0.253268952301021,-18.4362306296536,1.98486251890168));
#145=CARTESIAN_POINT('Ctrl Pts',(-0.309314413535765,-18.3977923676508,1.97644752333872));
#146=CARTESIAN_POINT('Ctrl Pts',(-0.397798553912909,-18.3093082272736,1.96055530258171));
#147=CARTESIAN_POINT('Ctrl Pts',(-0.436231992558067,-18.2532653425152,1.95202238889465));
#148=CARTESIAN_POINT('Ctrl Pts',(-0.487339527044977,-18.1301608540053,1.93989431732842));
#149=CARTESIAN_POINT('Ctrl Pts',(-0.5,-18.0630747053392,1.93649167310371));
#150=CARTESIAN_POINT('Ctrl Pts',(-0.5,-18.,1.93649167310371));
#151=CARTESIAN_POINT('Ctrl Pts',(-0.5,-18.,1.93649167310371));
#152=CARTESIAN_POINT('Ctrl Pts',(-0.5,-17.9369252946608,1.93649167310371));
#153=CARTESIAN_POINT('Ctrl Pts',(-0.487339527044977,-17.8698391459948,1.93989431732842));
#154=CARTESIAN_POINT('Ctrl Pts',(-0.436231992558068,-17.7467346574848,1.95202238889465));
#155=CARTESIAN_POINT('Ctrl Pts',(-0.397798553912909,-17.6906917727264,1.96055530258171));
#156=CARTESIAN_POINT('Ctrl Pts',(-0.309314413535765,-17.6022076323492,1.97644752333872));
#157=CARTESIAN_POINT('Ctrl Pts',(-0.253268952301023,-17.5637693703464,1.98486251890168));
#158=CARTESIAN_POINT('Ctrl Pts',(-0.130155327908249,-17.512658314485,1.99671830048978));
#159=CARTESIAN_POINT('Ctrl Pts',(-0.0630658863716184,-17.5,2.));
#160=CARTESIAN_POINT('Ctrl Pts',(0.0630658863716185,-17.5,2.));
#161=CARTESIAN_POINT('Ctrl Pts',(0.130155327908249,-17.512658314485,1.99671830048978));
#162=CARTESIAN_POINT('Ctrl Pts',(0.253268952301023,-17.5637693703464,1.98486251890168));
#163=CARTESIAN_POINT('Ctrl Pts',(0.309314413535764,-17.6022076323492,1.97644752333872));
#164=CARTESIAN_POINT('Ctrl Pts',(0.397798553912909,-17.6906917727264,1.96055530258171));
#165=CARTESIAN_POINT('Ctrl Pts',(0.436231992558067,-17.7467346574848,1.95202238889465));
#166=CARTESIAN_POINT('Ctrl Pts',(0.487339527044977,-17.8698391459947,1.93989431732842));
#167=CARTESIAN_POINT('Ctrl Pts',(0.5,-17.9369252946608,1.93649167310371));
#168=CARTESIAN_POINT('Ctrl Pts',(0.5,-18.,1.93649167310371));
#169=CARTESIAN_POINT('',(-2.,-25.,-2.44921270764475E-016));
#170=CARTESIAN_POINT('Origin',(0.,-25.,0.));
#171=CARTESIAN_POINT('Origin',(0.,-35.,0.));
#172=CARTESIAN_POINT('',(-1.75,-25.,-2.14306111918916E-016));
#173=CARTESIAN_POINT('Origin',(0.,-25.,0.));
#174=CARTESIAN_POINT('',(-1.75,-45.,-2.14306111918916E-016));
#175=CARTESIAN_POINT('Origin',(0.,-45.,0.));
#176=CARTESIAN_POINT('Origin',(0.,-18.,4.));
#177=CARTESIAN_POINT('',(-0.5,-18.,1.5));
#178=CARTESIAN_POINT('Origin',(0.,-18.,1.5));
#179=CARTESIAN_POINT('Origin',(0.,-18.,1.5));
#180=CARTESIAN_POINT('Origin',(0.,-45.,0.));
#181=CARTESIAN_POINT('Origin',(0.,-25.,0.));
#182=CARTESIAN_POINT('Origin',(0.,0.,0.));
#183=UNCERTAINTY_MEASURE_WITH_UNIT(LENGTH_MEASURE(0.01),#185,
'DISTANCE_ACCURACY_VALUE',
'Maximum model space distance between geometric entities at asserted c
onnectivities');
#184=(
GEOMETRIC_REPRESENTATION_CONTEXT(3)
GLOBAL_UNCERTAINTY_ASSIGNED_CONTEXT((#183))
GLOBAL_UNIT_ASSIGNED_CONTEXT((#185,#187,#186))
REPRESENTATION_CONTEXT('','3D')
);
#185=(
LENGTH_UNIT()
NAMED_UNIT(*)
SI_UNIT(.MILLI.,.METRE.)
);
#186=(
NAMED_UNIT(*)
SI_UNIT($,.STERADIAN.)
SOLID_ANGLE_UNIT()
);
#187=(
NAMED_UNIT(*)
PLANE_ANGLE_UNIT()
SI_UNIT($,.RADIAN.)
);
#188=SHAPE_DEFINITION_REPRESENTATION(#189,#190);
#189=PRODUCT_DEFINITION_SHAPE('',$,#192);
#190=SHAPE_REPRESENTATION('',(#88),#184);
#191=PRODUCT_DEFINITION_CONTEXT('3D Mechanical Parts',#195,'design');
#192=PRODUCT_DEFINITION('IBR40181','IBR40181',#193,#191);
#193=PRODUCT_DEFINITION_FORMATION('',$,#197);
#194=APPLICATION_PROTOCOL_DEFINITION('international standard',
'automotive_design',2009,#195);
#195=APPLICATION_CONTEXT(
'Core Data for Automotive Mechanical Design Process');
#196=PRODUCT_CONTEXT('3D Mechanical Parts',#195,'mechanical');
#197=PRODUCT('IBR40181','IBR40181',$,(#196));
#198=PRESENTATION_STYLE_ASSIGNMENT((#199));
#199=SURFACE_STYLE_USAGE(.BOTH.,#200);
#200=SURFACE_SIDE_STYLE($,(#201));
#201=SURFACE_STYLE_FILL_AREA(#202);
#202=FILL_AREA_STYLE($,(#203));
#203=FILL_AREA_STYLE_COLOUR($,#204);
#204=COLOUR_RGB('',0.749019607843137,0.749019607843137,0.749019607843137);
ENDSEC;
END-ISO-10303-21;
