ISO-10303-21;
HEADER;
/* Generated by software containing ST-Developer
 * from STEP Tools, Inc. (www.steptools.com) 
 */

FILE_DESCRIPTION(
/* description */ (''),
/* implementation_level */ '2;1');

FILE_NAME(
/* name */ 
'C:\\Users\\mitarbeiter\\Desktop\\3D\\Imported Components\\LS150510\\L
S150510.stp',
/* time_stamp */ '2016-10-06T13:30:01+02:00',
/* author */ ('mitarbeiter'),
/* organization */ (''),
/* preprocessor_version */ 'ST-DEVELOPER v15.2',
/* originating_system */ 'Autodesk Inventor 2014',
/* authorisation */ '');

FILE_SCHEMA (('AUTOMOTIVE_DESIGN { 1 0 10303 214 3 1 1 }'));
ENDSEC;

DATA;
#10=TRIMMED_CURVE($,#14,(#142,PARAMETER_VALUE(0.)),(#143,
PARAMETER_VALUE(1.)),.T.,.PARAMETER.);
#11=TRIMMED_CURVE($,#15,(#145,PARAMETER_VALUE(0.)),(#146,
PARAMETER_VALUE(1.)),.T.,.PARAMETER.);
#12=TRIMMED_CURVE($,#16,(#148,PARAMETER_VALUE(0.)),(#149,
PARAMETER_VALUE(1.)),.T.,.PARAMETER.);
#13=TRIMMED_CURVE($,#17,(#151,PARAMETER_VALUE(0.)),(#152,
PARAMETER_VALUE(1.)),.T.,.PARAMETER.);
#14=LINE($,#141,#18);
#15=LINE($,#144,#19);
#16=LINE($,#147,#20);
#17=LINE($,#150,#21);
#18=VECTOR($,#116,1.);
#19=VECTOR($,#117,1.);
#20=VECTOR($,#118,1.);
#21=VECTOR($,#119,1.);
#22=GEOMETRICALLY_BOUNDED_SURFACE_SHAPE_REPRESENTATION('',(#23),#157);
#23=GEOMETRIC_SET('GEOSET',(#52,#10,#11,#12,#13,#53,#54,#55));
#24=SHAPE_REPRESENTATION_RELATIONSHIP('SRR','None',#166,#26);
#25=SHAPE_REPRESENTATION_RELATIONSHIP('SRR','None',#166,#22);
#26=ADVANCED_BREP_SHAPE_REPRESENTATION($,(#79),#157);
#27=STYLED_ITEM($,(#175),#79);
#28=PLANE($,#88);
#29=PLANE($,#89);
#30=CYLINDRICAL_SURFACE($,#84,4.);
#31=CYLINDRICAL_SURFACE($,#86,3.);
#32=FACE_BOUND($,#41,.T.);
#33=FACE_BOUND($,#43,.T.);
#34=FACE_BOUND($,#45,.T.);
#35=FACE_OUTER_BOUND($,#40,.T.);
#36=FACE_OUTER_BOUND($,#42,.T.);
#37=FACE_OUTER_BOUND($,#44,.T.);
#38=FACE_OUTER_BOUND($,#46,.T.);
#39=FACE_OUTER_BOUND($,#47,.T.);
#40=EDGE_LOOP($,(#64));
#41=EDGE_LOOP($,(#65));
#42=EDGE_LOOP($,(#66));
#43=EDGE_LOOP($,(#67));
#44=EDGE_LOOP($,(#68));
#45=EDGE_LOOP($,(#69));
#46=EDGE_LOOP($,(#70));
#47=EDGE_LOOP($,(#71));
#48=CIRCLE($,#82,3.);
#49=CIRCLE($,#83,4.);
#50=CIRCLE($,#85,4.);
#51=CIRCLE($,#87,3.);
#52=CIRCLE($,#90,3.);
#53=CIRCLE($,#91,4.);
#54=CIRCLE($,#92,3.5);
#55=CIRCLE($,#93,4.);
#56=VERTEX_POINT($,#128);
#57=VERTEX_POINT($,#130);
#58=VERTEX_POINT($,#133);
#59=VERTEX_POINT($,#136);
#60=EDGE_CURVE($,#56,#56,#48,.T.);
#61=EDGE_CURVE($,#57,#57,#49,.T.);
#62=EDGE_CURVE($,#58,#58,#50,.T.);
#63=EDGE_CURVE($,#59,#59,#51,.T.);
#64=ORIENTED_EDGE($,*,*,#60,.T.);
#65=ORIENTED_EDGE($,*,*,#61,.T.);
#66=ORIENTED_EDGE($,*,*,#62,.F.);
#67=ORIENTED_EDGE($,*,*,#61,.F.);
#68=ORIENTED_EDGE($,*,*,#63,.F.);
#69=ORIENTED_EDGE($,*,*,#60,.F.);
#70=ORIENTED_EDGE($,*,*,#63,.T.);
#71=ORIENTED_EDGE($,*,*,#62,.T.);
#72=CONICAL_SURFACE($,#81,3.5,45.);
#73=ADVANCED_FACE($,(#35,#32),#72,.T.);
#74=ADVANCED_FACE($,(#36,#33),#30,.T.);
#75=ADVANCED_FACE($,(#37,#34),#31,.T.);
#76=ADVANCED_FACE($,(#38),#28,.T.);
#77=ADVANCED_FACE($,(#39),#29,.F.);
#78=CLOSED_SHELL($,(#73,#74,#75,#76,#77));
#79=MANIFOLD_SOLID_BREP('Volumenk\X\F6rper1',#78);
#80=AXIS2_PLACEMENT_3D('placement',#126,#94,#95);
#81=AXIS2_PLACEMENT_3D($,#127,#96,#97);
#82=AXIS2_PLACEMENT_3D($,#129,#98,#99);
#83=AXIS2_PLACEMENT_3D($,#131,#100,#101);
#84=AXIS2_PLACEMENT_3D($,#132,#102,#103);
#85=AXIS2_PLACEMENT_3D($,#134,#104,#105);
#86=AXIS2_PLACEMENT_3D($,#135,#106,#107);
#87=AXIS2_PLACEMENT_3D($,#137,#108,#109);
#88=AXIS2_PLACEMENT_3D($,#138,#110,#111);
#89=AXIS2_PLACEMENT_3D($,#139,#112,#113);
#90=AXIS2_PLACEMENT_3D($,#140,#114,#115);
#91=AXIS2_PLACEMENT_3D($,#153,#120,#121);
#92=AXIS2_PLACEMENT_3D($,#154,#122,#123);
#93=AXIS2_PLACEMENT_3D($,#155,#124,#125);
#94=DIRECTION('axis',(0.,0.,1.));
#95=DIRECTION('refdir',(1.,0.,0.));
#96=DIRECTION('center_axis',(0.,0.,-1.));
#97=DIRECTION('ref_axis',(-1.,0.,0.));
#98=DIRECTION('center_axis',(0.,0.,-1.));
#99=DIRECTION('ref_axis',(-1.,0.,0.));
#100=DIRECTION('center_axis',(0.,0.,1.));
#101=DIRECTION('ref_axis',(-1.,0.,0.));
#102=DIRECTION('center_axis',(0.,0.,-1.));
#103=DIRECTION('ref_axis',(-1.,0.,0.));
#104=DIRECTION('center_axis',(0.,0.,-1.));
#105=DIRECTION('ref_axis',(-1.,0.,0.));
#106=DIRECTION('center_axis',(0.,0.,1.));
#107=DIRECTION('ref_axis',(-1.,0.,0.));
#108=DIRECTION('center_axis',(0.,0.,1.));
#109=DIRECTION('ref_axis',(-1.,0.,0.));
#110=DIRECTION('center_axis',(0.,0.,1.));
#111=DIRECTION('ref_axis',(1.,0.,0.));
#112=DIRECTION('center_axis',(0.,0.,1.));
#113=DIRECTION('ref_axis',(1.,0.,0.));
#114=DIRECTION('center_axis',(0.,0.,1.));
#115=DIRECTION('ref_axis',(1.,0.,0.));
#116=DIRECTION($,(0.,1.,0.));
#117=DIRECTION($,(-1.,0.,0.));
#118=DIRECTION($,(1.,0.,0.));
#119=DIRECTION($,(0.,-1.,0.));
#120=DIRECTION('center_axis',(0.,0.,-1.));
#121=DIRECTION('ref_axis',(-1.,0.,0.));
#122=DIRECTION('center_axis',(0.,0.,-1.));
#123=DIRECTION('ref_axis',(-1.,0.,0.));
#124=DIRECTION('center_axis',(0.,0.,-1.));
#125=DIRECTION('ref_axis',(-1.,0.,0.));
#126=CARTESIAN_POINT('',(0.,0.,0.));
#127=CARTESIAN_POINT('Origin',(0.,0.,-0.5));
#128=CARTESIAN_POINT('',(3.,3.67394039744206E-016,0.));
#129=CARTESIAN_POINT('Origin',(0.,0.,0.));
#130=CARTESIAN_POINT('',(4.,4.89842541528951E-016,-1.));
#131=CARTESIAN_POINT('Origin',(0.,0.,-1.));
#132=CARTESIAN_POINT('Origin',(0.,0.,0.));
#133=CARTESIAN_POINT('',(4.,4.89858719658941E-016,-12.));
#134=CARTESIAN_POINT('Origin',(0.,0.,-12.));
#135=CARTESIAN_POINT('Origin',(0.,0.,0.));
#136=CARTESIAN_POINT('',(3.,3.67394039744206E-016,14.5));
#137=CARTESIAN_POINT('Origin',(0.,0.,14.5));
#138=CARTESIAN_POINT('Origin',(-1.84812801154609E-016,-7.70988211545247E-017,
14.5));
#139=CARTESIAN_POINT('Origin',(-2.72116675257653E-016,0.,-12.));
#140=CARTESIAN_POINT('Origin',(0.,0.,14.5));
#141=CARTESIAN_POINT($,(0.,0.,14.5));
#142=CARTESIAN_POINT('',(0.,0.,14.5));
#143=CARTESIAN_POINT('',(0.,1.,14.5));
#144=CARTESIAN_POINT($,(0.,0.,14.5));
#145=CARTESIAN_POINT('',(0.,0.,14.5));
#146=CARTESIAN_POINT('',(-1.,0.,14.5));
#147=CARTESIAN_POINT($,(0.,0.,14.5));
#148=CARTESIAN_POINT('',(0.,0.,14.5));
#149=CARTESIAN_POINT('',(1.,0.,14.5));
#150=CARTESIAN_POINT($,(0.,0.,14.5));
#151=CARTESIAN_POINT('',(0.,0.,14.5));
#152=CARTESIAN_POINT('',(0.,-1.,14.5));
#153=CARTESIAN_POINT('Origin',(0.,0.,-12.));
#154=CARTESIAN_POINT('Origin',(0.,0.,-12.));
#155=CARTESIAN_POINT('Origin',(0.,0.,-12.));
#156=UNCERTAINTY_MEASURE_WITH_UNIT(LENGTH_MEASURE(0.01),#158,
'DISTANCE_ACCURACY_VALUE',
'Maximum model space distance between geometric entities at asserted c
onnectivities');
#157=(
GEOMETRIC_REPRESENTATION_CONTEXT(3)
GLOBAL_UNCERTAINTY_ASSIGNED_CONTEXT((#156))
GLOBAL_UNIT_ASSIGNED_CONTEXT((#158,#161,#159))
REPRESENTATION_CONTEXT('','3D')
);
#158=(
LENGTH_UNIT()
NAMED_UNIT(*)
SI_UNIT(.MILLI.,.METRE.)
);
#159=(
NAMED_UNIT(*)
SI_UNIT($,.STERADIAN.)
SOLID_ANGLE_UNIT()
);
#160=DIMENSIONAL_EXPONENTS(0.,0.,0.,0.,0.,0.,0.);
#161=(
CONVERSION_BASED_UNIT('degree',#163)
NAMED_UNIT(#160)
PLANE_ANGLE_UNIT()
);
#162=(
NAMED_UNIT(*)
PLANE_ANGLE_UNIT()
SI_UNIT($,.RADIAN.)
);
#163=PLANE_ANGLE_MEASURE_WITH_UNIT(PLANE_ANGLE_MEASURE(0.01745329252),#162);
#164=SHAPE_DEFINITION_REPRESENTATION(#165,#166);
#165=PRODUCT_DEFINITION_SHAPE('',$,#168);
#166=SHAPE_REPRESENTATION('',(#80),#157);
#167=PRODUCT_DEFINITION_CONTEXT('3D Mechanical Parts',#171,'design');
#168=PRODUCT_DEFINITION('LS150510','LS150510',#169,#167);
#169=PRODUCT_DEFINITION_FORMATION('',$,#173);
#170=APPLICATION_PROTOCOL_DEFINITION('international standard',
'automotive_design',2009,#171);
#171=APPLICATION_CONTEXT(
'Core Data for Automotive Mechanical Design Process');
#172=PRODUCT_CONTEXT('3D Mechanical Parts',#171,'mechanical');
#173=PRODUCT('LS150510','LS150510',$,(#172));
#174=PRESENTATION_STYLE_ASSIGNMENT((#176));
#175=PRESENTATION_STYLE_ASSIGNMENT((#177));
#176=SURFACE_STYLE_USAGE(.BOTH.,#178);
#177=SURFACE_STYLE_USAGE(.BOTH.,#179);
#178=SURFACE_SIDE_STYLE($,(#180));
#179=SURFACE_SIDE_STYLE($,(#181));
#180=SURFACE_STYLE_FILL_AREA(#182);
#181=SURFACE_STYLE_FILL_AREA(#183);
#182=FILL_AREA_STYLE($,(#184));
#183=FILL_AREA_STYLE($,(#185));
#184=FILL_AREA_STYLE_COLOUR($,#186);
#185=FILL_AREA_STYLE_COLOUR($,#187);
#186=COLOUR_RGB('',0.749019607843137,0.749019607843137,0.749019607843137);
#187=COLOUR_RGB('',0.411764705882353,0.411764705882353,0.411764705882353);
ENDSEC;
END-ISO-10303-21;
