ISO-10303-21;
HEADER;
/* Generated by software containing ST-Developer
 * from STEP Tools, Inc. (www.steptools.com) 
 */

FILE_DESCRIPTION(
/* description */ (''),
/* implementation_level */ '2;1');

FILE_NAME(
/* name */ 
'C:\\Users\\mitarbeiter\\Desktop\\3D\\Imported Components\\OY156000\\O
Y156000.stp',
/* time_stamp */ '2016-10-10T14:03:48+02:00',
/* author */ ('mitarbeiter'),
/* organization */ (''),
/* preprocessor_version */ 'ST-DEVELOPER v15.2',
/* originating_system */ 'Autodesk Inventor 2014',
/* authorisation */ '');

FILE_SCHEMA (('AUTOMOTIVE_DESIGN { 1 0 10303 214 3 1 1 }'));
ENDSEC;

DATA;
#10=ITEM_DEFINED_TRANSFORMATION($,$,#263,#298);
#11=ITEM_DEFINED_TRANSFORMATION($,$,#285,#299);
#12=(
REPRESENTATION_RELATIONSHIP($,$,#476,#478)
REPRESENTATION_RELATIONSHIP_WITH_TRANSFORMATION(#10)
SHAPE_REPRESENTATION_RELATIONSHIP()
);
#13=(
REPRESENTATION_RELATIONSHIP($,$,#477,#478)
REPRESENTATION_RELATIONSHIP_WITH_TRANSFORMATION(#11)
SHAPE_REPRESENTATION_RELATIONSHIP()
);
#14=CONTEXT_DEPENDENT_SHAPE_REPRESENTATION(#12,#474);
#15=CONTEXT_DEPENDENT_SHAPE_REPRESENTATION(#13,#475);
#16=NEXT_ASSEMBLY_USAGE_OCCURRENCE('Geh\X\E4use_OY156000:1',$,$,#482,#480,
$);
#17=NEXT_ASSEMBLY_USAGE_OCCURRENCE('Anschluss_OY156000:1',$,$,#482,#481,
$);
#18=SHAPE_REPRESENTATION_RELATIONSHIP('SRR','None',#476,#20);
#19=SHAPE_REPRESENTATION_RELATIONSHIP('SRR','None',#477,#21);
#20=ADVANCED_BREP_SHAPE_REPRESENTATION($,(#261),#459);
#21=ADVANCED_BREP_SHAPE_REPRESENTATION($,(#262),#460);
#22=STYLED_ITEM($,(#493),#261);
#23=STYLED_ITEM($,(#494),#262);
#24=LINE($,#413,#36);
#25=LINE($,#415,#37);
#26=LINE($,#417,#38);
#27=LINE($,#418,#39);
#28=LINE($,#421,#40);
#29=LINE($,#423,#41);
#30=LINE($,#424,#42);
#31=LINE($,#427,#43);
#32=LINE($,#429,#44);
#33=LINE($,#430,#45);
#34=LINE($,#432,#46);
#35=LINE($,#433,#47);
#36=VECTOR($,#334,35.);
#37=VECTOR($,#335,20.);
#38=VECTOR($,#336,35.);
#39=VECTOR($,#337,20.);
#40=VECTOR($,#340,40.);
#41=VECTOR($,#341,20.);
#42=VECTOR($,#342,40.);
#43=VECTOR($,#345,35.);
#44=VECTOR($,#346,20.);
#45=VECTOR($,#347,35.);
#46=VECTOR($,#350,40.);
#47=VECTOR($,#351,40.);
#48=PLANE($,#275);
#49=PLANE($,#279);
#50=PLANE($,#280);
#51=PLANE($,#281);
#52=PLANE($,#282);
#53=PLANE($,#283);
#54=PLANE($,#284);
#55=PLANE($,#286);
#56=PLANE($,#290);
#57=PLANE($,#296);
#58=FACE_BOUND($,#98,.T.);
#59=FACE_BOUND($,#101,.T.);
#60=FACE_BOUND($,#103,.T.);
#61=FACE_BOUND($,#106,.T.);
#62=FACE_BOUND($,#108,.T.);
#63=FACE_BOUND($,#109,.T.);
#64=FACE_BOUND($,#114,.T.);
#65=FACE_BOUND($,#116,.T.);
#66=FACE_BOUND($,#117,.T.);
#67=FACE_BOUND($,#120,.T.);
#68=FACE_BOUND($,#122,.T.);
#69=FACE_BOUND($,#124,.T.);
#70=FACE_BOUND($,#126,.T.);
#71=CYLINDRICAL_SURFACE($,#266,1.2295);
#72=CYLINDRICAL_SURFACE($,#270,1.2295);
#73=CYLINDRICAL_SURFACE($,#272,3.);
#74=CYLINDRICAL_SURFACE($,#276,7.8);
#75=CYLINDRICAL_SURFACE($,#288,2.);
#76=CYLINDRICAL_SURFACE($,#294,3.);
#77=FACE_OUTER_BOUND($,#96,.T.);
#78=FACE_OUTER_BOUND($,#97,.T.);
#79=FACE_OUTER_BOUND($,#99,.T.);
#80=FACE_OUTER_BOUND($,#100,.T.);
#81=FACE_OUTER_BOUND($,#102,.T.);
#82=FACE_OUTER_BOUND($,#104,.T.);
#83=FACE_OUTER_BOUND($,#105,.T.);
#84=FACE_OUTER_BOUND($,#107,.T.);
#85=FACE_OUTER_BOUND($,#110,.T.);
#86=FACE_OUTER_BOUND($,#111,.T.);
#87=FACE_OUTER_BOUND($,#112,.T.);
#88=FACE_OUTER_BOUND($,#113,.T.);
#89=FACE_OUTER_BOUND($,#115,.T.);
#90=FACE_OUTER_BOUND($,#118,.T.);
#91=FACE_OUTER_BOUND($,#119,.T.);
#92=FACE_OUTER_BOUND($,#121,.T.);
#93=FACE_OUTER_BOUND($,#123,.T.);
#94=FACE_OUTER_BOUND($,#125,.T.);
#95=FACE_OUTER_BOUND($,#127,.T.);
#96=EDGE_LOOP($,(#187));
#97=EDGE_LOOP($,(#188));
#98=EDGE_LOOP($,(#189));
#99=EDGE_LOOP($,(#190));
#100=EDGE_LOOP($,(#191));
#101=EDGE_LOOP($,(#192));
#102=EDGE_LOOP($,(#193));
#103=EDGE_LOOP($,(#194));
#104=EDGE_LOOP($,(#195));
#105=EDGE_LOOP($,(#196));
#106=EDGE_LOOP($,(#197));
#107=EDGE_LOOP($,(#198,#199,#200,#201));
#108=EDGE_LOOP($,(#202));
#109=EDGE_LOOP($,(#203));
#110=EDGE_LOOP($,(#204,#205,#206,#207));
#111=EDGE_LOOP($,(#208,#209,#210,#211));
#112=EDGE_LOOP($,(#212,#213,#214,#215));
#113=EDGE_LOOP($,(#216,#217,#218,#219));
#114=EDGE_LOOP($,(#220));
#115=EDGE_LOOP($,(#221,#222,#223,#224));
#116=EDGE_LOOP($,(#225));
#117=EDGE_LOOP($,(#226));
#118=EDGE_LOOP($,(#227));
#119=EDGE_LOOP($,(#228));
#120=EDGE_LOOP($,(#229));
#121=EDGE_LOOP($,(#230));
#122=EDGE_LOOP($,(#231));
#123=EDGE_LOOP($,(#232));
#124=EDGE_LOOP($,(#233));
#125=EDGE_LOOP($,(#234));
#126=EDGE_LOOP($,(#235));
#127=EDGE_LOOP($,(#236));
#128=CIRCLE($,#265,1.2295);
#129=CIRCLE($,#267,1.2295);
#130=CIRCLE($,#269,1.2295);
#131=CIRCLE($,#271,1.2295);
#132=CIRCLE($,#273,3.);
#133=CIRCLE($,#274,3.);
#134=CIRCLE($,#277,7.8);
#135=CIRCLE($,#278,7.8);
#136=CIRCLE($,#287,2.);
#137=CIRCLE($,#289,2.);
#138=CIRCLE($,#291,2.5);
#139=CIRCLE($,#293,3.);
#140=CIRCLE($,#295,3.);
#141=VERTEX_POINT($,#388);
#142=VERTEX_POINT($,#391);
#143=VERTEX_POINT($,#394);
#144=VERTEX_POINT($,#397);
#145=VERTEX_POINT($,#400);
#146=VERTEX_POINT($,#402);
#147=VERTEX_POINT($,#406);
#148=VERTEX_POINT($,#408);
#149=VERTEX_POINT($,#411);
#150=VERTEX_POINT($,#412);
#151=VERTEX_POINT($,#414);
#152=VERTEX_POINT($,#416);
#153=VERTEX_POINT($,#420);
#154=VERTEX_POINT($,#422);
#155=VERTEX_POINT($,#426);
#156=VERTEX_POINT($,#428);
#157=VERTEX_POINT($,#438);
#158=VERTEX_POINT($,#441);
#159=VERTEX_POINT($,#444);
#160=VERTEX_POINT($,#447);
#161=VERTEX_POINT($,#450);
#162=EDGE_CURVE($,#141,#141,#128,.T.);
#163=EDGE_CURVE($,#142,#142,#129,.T.);
#164=EDGE_CURVE($,#143,#143,#130,.T.);
#165=EDGE_CURVE($,#144,#144,#131,.T.);
#166=EDGE_CURVE($,#145,#145,#132,.T.);
#167=EDGE_CURVE($,#146,#146,#133,.T.);
#168=EDGE_CURVE($,#147,#147,#134,.T.);
#169=EDGE_CURVE($,#148,#148,#135,.T.);
#170=EDGE_CURVE($,#149,#150,#24,.T.);
#171=EDGE_CURVE($,#151,#150,#25,.T.);
#172=EDGE_CURVE($,#151,#152,#26,.T.);
#173=EDGE_CURVE($,#152,#149,#27,.T.);
#174=EDGE_CURVE($,#150,#153,#28,.T.);
#175=EDGE_CURVE($,#154,#153,#29,.T.);
#176=EDGE_CURVE($,#154,#151,#30,.T.);
#177=EDGE_CURVE($,#153,#155,#31,.T.);
#178=EDGE_CURVE($,#156,#155,#32,.T.);
#179=EDGE_CURVE($,#156,#154,#33,.T.);
#180=EDGE_CURVE($,#155,#149,#34,.T.);
#181=EDGE_CURVE($,#152,#156,#35,.T.);
#182=EDGE_CURVE($,#157,#157,#136,.T.);
#183=EDGE_CURVE($,#158,#158,#137,.T.);
#184=EDGE_CURVE($,#159,#159,#138,.T.);
#185=EDGE_CURVE($,#160,#160,#139,.T.);
#186=EDGE_CURVE($,#161,#161,#140,.T.);
#187=ORIENTED_EDGE($,*,*,#162,.T.);
#188=ORIENTED_EDGE($,*,*,#163,.F.);
#189=ORIENTED_EDGE($,*,*,#162,.F.);
#190=ORIENTED_EDGE($,*,*,#164,.T.);
#191=ORIENTED_EDGE($,*,*,#165,.F.);
#192=ORIENTED_EDGE($,*,*,#164,.F.);
#193=ORIENTED_EDGE($,*,*,#166,.F.);
#194=ORIENTED_EDGE($,*,*,#167,.F.);
#195=ORIENTED_EDGE($,*,*,#167,.T.);
#196=ORIENTED_EDGE($,*,*,#168,.F.);
#197=ORIENTED_EDGE($,*,*,#169,.F.);
#198=ORIENTED_EDGE($,*,*,#170,.T.);
#199=ORIENTED_EDGE($,*,*,#171,.F.);
#200=ORIENTED_EDGE($,*,*,#172,.T.);
#201=ORIENTED_EDGE($,*,*,#173,.T.);
#202=ORIENTED_EDGE($,*,*,#163,.T.);
#203=ORIENTED_EDGE($,*,*,#165,.T.);
#204=ORIENTED_EDGE($,*,*,#174,.T.);
#205=ORIENTED_EDGE($,*,*,#175,.F.);
#206=ORIENTED_EDGE($,*,*,#176,.T.);
#207=ORIENTED_EDGE($,*,*,#171,.T.);
#208=ORIENTED_EDGE($,*,*,#177,.T.);
#209=ORIENTED_EDGE($,*,*,#178,.F.);
#210=ORIENTED_EDGE($,*,*,#179,.T.);
#211=ORIENTED_EDGE($,*,*,#175,.T.);
#212=ORIENTED_EDGE($,*,*,#180,.T.);
#213=ORIENTED_EDGE($,*,*,#173,.F.);
#214=ORIENTED_EDGE($,*,*,#181,.T.);
#215=ORIENTED_EDGE($,*,*,#178,.T.);
#216=ORIENTED_EDGE($,*,*,#181,.F.);
#217=ORIENTED_EDGE($,*,*,#172,.F.);
#218=ORIENTED_EDGE($,*,*,#176,.F.);
#219=ORIENTED_EDGE($,*,*,#179,.F.);
#220=ORIENTED_EDGE($,*,*,#168,.T.);
#221=ORIENTED_EDGE($,*,*,#170,.F.);
#222=ORIENTED_EDGE($,*,*,#180,.F.);
#223=ORIENTED_EDGE($,*,*,#177,.F.);
#224=ORIENTED_EDGE($,*,*,#174,.F.);
#225=ORIENTED_EDGE($,*,*,#166,.T.);
#226=ORIENTED_EDGE($,*,*,#169,.T.);
#227=ORIENTED_EDGE($,*,*,#182,.F.);
#228=ORIENTED_EDGE($,*,*,#183,.F.);
#229=ORIENTED_EDGE($,*,*,#182,.T.);
#230=ORIENTED_EDGE($,*,*,#184,.F.);
#231=ORIENTED_EDGE($,*,*,#183,.T.);
#232=ORIENTED_EDGE($,*,*,#185,.F.);
#233=ORIENTED_EDGE($,*,*,#184,.T.);
#234=ORIENTED_EDGE($,*,*,#186,.F.);
#235=ORIENTED_EDGE($,*,*,#185,.T.);
#236=ORIENTED_EDGE($,*,*,#186,.T.);
#237=CONICAL_SURFACE($,#264,1.10655,59.);
#238=CONICAL_SURFACE($,#268,1.10655,58.9999999999999);
#239=CONICAL_SURFACE($,#292,2.75,3.17983011986424);
#240=ADVANCED_FACE($,(#77),#237,.F.);
#241=ADVANCED_FACE($,(#78,#58),#71,.F.);
#242=ADVANCED_FACE($,(#79),#238,.F.);
#243=ADVANCED_FACE($,(#80,#59),#72,.F.);
#244=ADVANCED_FACE($,(#81,#60),#73,.F.);
#245=ADVANCED_FACE($,(#82),#48,.F.);
#246=ADVANCED_FACE($,(#83,#61),#74,.F.);
#247=ADVANCED_FACE($,(#84,#62,#63),#49,.T.);
#248=ADVANCED_FACE($,(#85),#50,.T.);
#249=ADVANCED_FACE($,(#86),#51,.T.);
#250=ADVANCED_FACE($,(#87),#52,.T.);
#251=ADVANCED_FACE($,(#88,#64),#53,.F.);
#252=ADVANCED_FACE($,(#89,#65,#66),#54,.T.);
#253=ADVANCED_FACE($,(#90),#55,.T.);
#254=ADVANCED_FACE($,(#91,#67),#75,.T.);
#255=ADVANCED_FACE($,(#92,#68),#56,.T.);
#256=ADVANCED_FACE($,(#93,#69),#239,.T.);
#257=ADVANCED_FACE($,(#94,#70),#76,.T.);
#258=ADVANCED_FACE($,(#95),#57,.T.);
#259=CLOSED_SHELL($,(#240,#241,#242,#243,#244,#245,#246,#247,#248,#249,
#250,#251,#252));
#260=CLOSED_SHELL($,(#253,#254,#255,#256,#257,#258));
#261=MANIFOLD_SOLID_BREP('Volumenk\X\F6rper1',#259);
#262=MANIFOLD_SOLID_BREP('Volumenk\X\F6rper1',#260);
#263=AXIS2_PLACEMENT_3D('placement',#386,#300,#301);
#264=AXIS2_PLACEMENT_3D($,#387,#302,#303);
#265=AXIS2_PLACEMENT_3D($,#389,#304,#305);
#266=AXIS2_PLACEMENT_3D($,#390,#306,#307);
#267=AXIS2_PLACEMENT_3D($,#392,#308,#309);
#268=AXIS2_PLACEMENT_3D($,#393,#310,#311);
#269=AXIS2_PLACEMENT_3D($,#395,#312,#313);
#270=AXIS2_PLACEMENT_3D($,#396,#314,#315);
#271=AXIS2_PLACEMENT_3D($,#398,#316,#317);
#272=AXIS2_PLACEMENT_3D($,#399,#318,#319);
#273=AXIS2_PLACEMENT_3D($,#401,#320,#321);
#274=AXIS2_PLACEMENT_3D($,#403,#322,#323);
#275=AXIS2_PLACEMENT_3D($,#404,#324,#325);
#276=AXIS2_PLACEMENT_3D($,#405,#326,#327);
#277=AXIS2_PLACEMENT_3D($,#407,#328,#329);
#278=AXIS2_PLACEMENT_3D($,#409,#330,#331);
#279=AXIS2_PLACEMENT_3D($,#410,#332,#333);
#280=AXIS2_PLACEMENT_3D($,#419,#338,#339);
#281=AXIS2_PLACEMENT_3D($,#425,#343,#344);
#282=AXIS2_PLACEMENT_3D($,#431,#348,#349);
#283=AXIS2_PLACEMENT_3D($,#434,#352,#353);
#284=AXIS2_PLACEMENT_3D($,#435,#354,#355);
#285=AXIS2_PLACEMENT_3D('placement',#436,#356,#357);
#286=AXIS2_PLACEMENT_3D($,#437,#358,#359);
#287=AXIS2_PLACEMENT_3D($,#439,#360,#361);
#288=AXIS2_PLACEMENT_3D($,#440,#362,#363);
#289=AXIS2_PLACEMENT_3D($,#442,#364,#365);
#290=AXIS2_PLACEMENT_3D($,#443,#366,#367);
#291=AXIS2_PLACEMENT_3D($,#445,#368,#369);
#292=AXIS2_PLACEMENT_3D($,#446,#370,#371);
#293=AXIS2_PLACEMENT_3D($,#448,#372,#373);
#294=AXIS2_PLACEMENT_3D($,#449,#374,#375);
#295=AXIS2_PLACEMENT_3D($,#451,#376,#377);
#296=AXIS2_PLACEMENT_3D($,#452,#378,#379);
#297=AXIS2_PLACEMENT_3D('placement',#453,#380,#381);
#298=AXIS2_PLACEMENT_3D($,#454,#382,#383);
#299=AXIS2_PLACEMENT_3D($,#455,#384,#385);
#300=DIRECTION('axis',(0.,0.,1.));
#301=DIRECTION('refdir',(1.,0.,0.));
#302=DIRECTION('center_axis',(-1.,5.29111841809054E-016,-3.94409832495544E-017));
#303=DIRECTION('ref_axis',(4.53524486661072E-016,0.813826036051075,-0.581108581114919));
#304=DIRECTION('center_axis',(-1.,0.,0.));
#305=DIRECTION('ref_axis',(0.,-1.,0.));
#306=DIRECTION('center_axis',(-1.,0.,0.));
#307=DIRECTION('ref_axis',(0.,1.,-1.80597482655577E-015));
#308=DIRECTION('center_axis',(1.,0.,0.));
#309=DIRECTION('ref_axis',(0.,-1.,0.));
#310=DIRECTION('center_axis',(-1.,3.0442346970249E-017,-1.18312025469293E-016));
#311=DIRECTION('ref_axis',(9.35269078121818E-017,0.813826036051076,-0.581108581114918));
#312=DIRECTION('center_axis',(-1.,0.,0.));
#313=DIRECTION('ref_axis',(0.,-1.,0.));
#314=DIRECTION('center_axis',(-1.,-4.05421926075212E-031,-6.34951470981961E-016));
#315=DIRECTION('ref_axis',(0.,1.,0.));
#316=DIRECTION('center_axis',(1.,0.,0.));
#317=DIRECTION('ref_axis',(0.,-1.,0.));
#318=DIRECTION('center_axis',(0.,0.,1.));
#319=DIRECTION('ref_axis',(-1.,0.,0.));
#320=DIRECTION('center_axis',(0.,0.,-1.));
#321=DIRECTION('ref_axis',(1.,0.,0.));
#322=DIRECTION('center_axis',(0.,0.,1.));
#323=DIRECTION('ref_axis',(1.,0.,0.));
#324=DIRECTION('center_axis',(0.,0.,-1.));
#325=DIRECTION('ref_axis',(-1.,0.,0.));
#326=DIRECTION('center_axis',(0.,0.,1.));
#327=DIRECTION('ref_axis',(-1.,-2.84672570416707E-016,0.));
#328=DIRECTION('center_axis',(0.,0.,1.));
#329=DIRECTION('ref_axis',(1.,0.,0.));
#330=DIRECTION('center_axis',(0.,0.,-1.));
#331=DIRECTION('ref_axis',(1.,0.,0.));
#332=DIRECTION('center_axis',(-1.,0.,0.));
#333=DIRECTION('ref_axis',(0.,0.,1.));
#334=DIRECTION($,(0.,1.,0.));
#335=DIRECTION($,(0.,0.,1.));
#336=DIRECTION($,(0.,-1.,0.));
#337=DIRECTION($,(0.,0.,1.));
#338=DIRECTION('center_axis',(0.,1.,0.));
#339=DIRECTION('ref_axis',(0.,0.,1.));
#340=DIRECTION($,(1.,0.,0.));
#341=DIRECTION($,(0.,0.,1.));
#342=DIRECTION($,(-1.,0.,0.));
#343=DIRECTION('center_axis',(1.,0.,0.));
#344=DIRECTION('ref_axis',(0.,0.,-1.));
#345=DIRECTION($,(0.,-1.,0.));
#346=DIRECTION($,(0.,0.,1.));
#347=DIRECTION($,(0.,1.,0.));
#348=DIRECTION('center_axis',(0.,-1.,0.));
#349=DIRECTION('ref_axis',(0.,0.,-1.));
#350=DIRECTION($,(-1.,0.,0.));
#351=DIRECTION($,(1.,0.,0.));
#352=DIRECTION('center_axis',(0.,0.,1.));
#353=DIRECTION('ref_axis',(1.,0.,0.));
#354=DIRECTION('center_axis',(0.,0.,1.));
#355=DIRECTION('ref_axis',(1.,0.,0.));
#356=DIRECTION('axis',(0.,0.,1.));
#357=DIRECTION('refdir',(1.,0.,0.));
#358=DIRECTION('center_axis',(0.,1.,0.));
#359=DIRECTION('ref_axis',(0.,0.,1.));
#360=DIRECTION('center_axis',(0.,-1.,0.));
#361=DIRECTION('ref_axis',(1.,0.,0.));
#362=DIRECTION('center_axis',(3.122502E-016,-1.,0.));
#363=DIRECTION('ref_axis',(1.,3.122502E-016,0.));
#364=DIRECTION('center_axis',(0.,-1.,0.));
#365=DIRECTION('ref_axis',(1.,0.,0.));
#366=DIRECTION('center_axis',(0.,1.,0.));
#367=DIRECTION('ref_axis',(0.,0.,1.));
#368=DIRECTION('center_axis',(0.,-1.,0.));
#369=DIRECTION('ref_axis',(1.,0.,0.));
#370=DIRECTION('center_axis',(3.122502E-016,-1.,0.));
#371=DIRECTION('ref_axis',(1.,3.122502E-016,0.));
#372=DIRECTION('center_axis',(0.,-1.,0.));
#373=DIRECTION('ref_axis',(1.,0.,0.));
#374=DIRECTION('center_axis',(3.122502E-016,-1.,0.));
#375=DIRECTION('ref_axis',(1.,3.122502E-016,0.));
#376=DIRECTION('center_axis',(0.,-1.,0.));
#377=DIRECTION('ref_axis',(1.,0.,0.));
#378=DIRECTION('center_axis',(0.,-1.,0.));
#379=DIRECTION('ref_axis',(0.,0.,-1.));
#380=DIRECTION('axis',(0.,0.,1.));
#381=DIRECTION('refdir',(1.,0.,0.));
#382=DIRECTION($,(0.,0.,1.));
#383=DIRECTION($,(1.,0.,0.));
#384=DIRECTION($,(0.,-1.,0.));
#385=DIRECTION($,(1.,0.,0.));
#386=CARTESIAN_POINT('',(0.,0.,0.));
#387=CARTESIAN_POINT('Origin',(5.07387581310943,27.5,10.));
#388=CARTESIAN_POINT('',(4.99999999999999,26.2705,10.));
#389=CARTESIAN_POINT('Origin',(4.99999999999999,27.5,10.));
#390=CARTESIAN_POINT('Origin',(2.49999999999999,27.5,10.));
#391=CARTESIAN_POINT('',(-8.042755E-015,26.2705,10.));
#392=CARTESIAN_POINT('Origin',(-8.326673E-015,27.5,10.));
#393=CARTESIAN_POINT('Origin',(5.07387581310943,7.5,10.));
#394=CARTESIAN_POINT('',(5.,6.2705,10.));
#395=CARTESIAN_POINT('Origin',(5.,7.5,10.));
#396=CARTESIAN_POINT('Origin',(2.5,7.5,10.));
#397=CARTESIAN_POINT('',(-1.919724E-015,6.2705,10.));
#398=CARTESIAN_POINT('Origin',(-2.220446E-015,7.5,10.));
#399=CARTESIAN_POINT('Origin',(5.49999999999999,17.5,19.5));
#400=CARTESIAN_POINT('',(8.49999999999999,17.5,20.));
#401=CARTESIAN_POINT('Origin',(5.49999999999999,17.5,20.));
#402=CARTESIAN_POINT('',(8.49999999999999,17.5,19.));
#403=CARTESIAN_POINT('Origin',(5.49999999999999,17.5,19.));
#404=CARTESIAN_POINT('Origin',(5.49999999999999,20.5,19.));
#405=CARTESIAN_POINT('Origin',(22.5,17.5,10.));
#406=CARTESIAN_POINT('',(14.7,17.5,0.));
#407=CARTESIAN_POINT('Origin',(22.5,17.5,0.));
#408=CARTESIAN_POINT('',(30.3,17.5,20.));
#409=CARTESIAN_POINT('Origin',(22.5,17.5,20.));
#410=CARTESIAN_POINT('Origin',(0.,0.,0.));
#411=CARTESIAN_POINT('',(0.,0.,20.));
#412=CARTESIAN_POINT('',(-1.071531E-014,35.,20.));
#413=CARTESIAN_POINT($,(0.,0.,20.));
#414=CARTESIAN_POINT('',(-1.071531E-014,35.,0.));
#415=CARTESIAN_POINT($,(-1.071531E-014,35.,0.));
#416=CARTESIAN_POINT('',(0.,0.,0.));
#417=CARTESIAN_POINT($,(-1.071531E-014,35.,0.));
#418=CARTESIAN_POINT($,(0.,0.,0.));
#419=CARTESIAN_POINT('Origin',(-1.071531E-014,35.,0.));
#420=CARTESIAN_POINT('',(40.,35.,20.));
#421=CARTESIAN_POINT($,(-1.071531E-014,35.,20.));
#422=CARTESIAN_POINT('',(40.,35.,0.));
#423=CARTESIAN_POINT($,(40.,35.,0.));
#424=CARTESIAN_POINT($,(40.,35.,0.));
#425=CARTESIAN_POINT('Origin',(40.,35.,0.));
#426=CARTESIAN_POINT('',(40.,0.,20.));
#427=CARTESIAN_POINT($,(40.,35.,20.));
#428=CARTESIAN_POINT('',(40.,0.,0.));
#429=CARTESIAN_POINT($,(40.,0.,0.));
#430=CARTESIAN_POINT($,(40.,0.,0.));
#431=CARTESIAN_POINT('Origin',(40.,0.,0.));
#432=CARTESIAN_POINT($,(40.,0.,20.));
#433=CARTESIAN_POINT($,(0.,0.,0.));
#434=CARTESIAN_POINT('Origin',(20.,17.5,0.));
#435=CARTESIAN_POINT('Origin',(20.,17.5,20.));
#436=CARTESIAN_POINT('',(0.,0.,0.));
#437=CARTESIAN_POINT('Origin',(0.999999999999994,20.,0.));
#438=CARTESIAN_POINT('',(1.99999999999999,20.,0.));
#439=CARTESIAN_POINT('Origin',(-6.245005E-015,20.,0.));
#440=CARTESIAN_POINT('Origin',(-4.683753E-015,15.,0.));
#441=CARTESIAN_POINT('',(2.,10.,0.));
#442=CARTESIAN_POINT('Origin',(-3.122502E-015,10.,0.));
#443=CARTESIAN_POINT('Origin',(2.25,10.,0.));
#444=CARTESIAN_POINT('',(2.5,10.,0.));
#445=CARTESIAN_POINT('Origin',(-3.122502E-015,10.,0.));
#446=CARTESIAN_POINT('Origin',(-1.717376E-015,5.5,0.));
#447=CARTESIAN_POINT('',(3.,1.,0.));
#448=CARTESIAN_POINT('Origin',(-3.122502E-016,0.999999999999999,0.));
#449=CARTESIAN_POINT('Origin',(-1.561251E-016,0.499999999999999,0.));
#450=CARTESIAN_POINT('',(3.,0.,0.));
#451=CARTESIAN_POINT('Origin',(2.925006E-031,-9.367507E-016,0.));
#452=CARTESIAN_POINT('Origin',(1.5,0.,0.));
#453=CARTESIAN_POINT('',(0.,0.,0.));
#454=CARTESIAN_POINT($,(0.,0.,0.));
#455=CARTESIAN_POINT($,(5.49999999999999,17.5,19.));
#456=UNCERTAINTY_MEASURE_WITH_UNIT(LENGTH_MEASURE(0.01),#462,
'DISTANCE_ACCURACY_VALUE',
'Maximum model space distance between geometric entities at asserted c
onnectivities');
#457=UNCERTAINTY_MEASURE_WITH_UNIT(LENGTH_MEASURE(0.01),#462,
'DISTANCE_ACCURACY_VALUE',
'Maximum model space distance between geometric entities at asserted c
onnectivities');
#458=UNCERTAINTY_MEASURE_WITH_UNIT(LENGTH_MEASURE(0.01),#462,
'DISTANCE_ACCURACY_VALUE',
'Maximum model space distance between geometric entities at asserted c
onnectivities');
#459=(
GEOMETRIC_REPRESENTATION_CONTEXT(3)
GLOBAL_UNCERTAINTY_ASSIGNED_CONTEXT((#456))
GLOBAL_UNIT_ASSIGNED_CONTEXT((#462,#465,#463))
REPRESENTATION_CONTEXT('','3D')
);
#460=(
GEOMETRIC_REPRESENTATION_CONTEXT(3)
GLOBAL_UNCERTAINTY_ASSIGNED_CONTEXT((#457))
GLOBAL_UNIT_ASSIGNED_CONTEXT((#462,#465,#463))
REPRESENTATION_CONTEXT('','3D')
);
#461=(
GEOMETRIC_REPRESENTATION_CONTEXT(3)
GLOBAL_UNCERTAINTY_ASSIGNED_CONTEXT((#458))
GLOBAL_UNIT_ASSIGNED_CONTEXT((#462,#465,#463))
REPRESENTATION_CONTEXT('','3D')
);
#462=(
LENGTH_UNIT()
NAMED_UNIT(*)
SI_UNIT(.MILLI.,.METRE.)
);
#463=(
NAMED_UNIT(*)
SI_UNIT($,.STERADIAN.)
SOLID_ANGLE_UNIT()
);
#464=DIMENSIONAL_EXPONENTS(0.,0.,0.,0.,0.,0.,0.);
#465=(
CONVERSION_BASED_UNIT('degree',#467)
NAMED_UNIT(#464)
PLANE_ANGLE_UNIT()
);
#466=(
NAMED_UNIT(*)
PLANE_ANGLE_UNIT()
SI_UNIT($,.RADIAN.)
);
#467=PLANE_ANGLE_MEASURE_WITH_UNIT(PLANE_ANGLE_MEASURE(0.01745329252),#466);
#468=SHAPE_DEFINITION_REPRESENTATION(#471,#476);
#469=SHAPE_DEFINITION_REPRESENTATION(#472,#477);
#470=SHAPE_DEFINITION_REPRESENTATION(#473,#478);
#471=PRODUCT_DEFINITION_SHAPE('',$,#480);
#472=PRODUCT_DEFINITION_SHAPE('',$,#481);
#473=PRODUCT_DEFINITION_SHAPE('',$,#482);
#474=PRODUCT_DEFINITION_SHAPE($,$,#16);
#475=PRODUCT_DEFINITION_SHAPE($,$,#17);
#476=SHAPE_REPRESENTATION('',(#263),#459);
#477=SHAPE_REPRESENTATION('',(#285),#460);
#478=SHAPE_REPRESENTATION('',(#297,#298,#299),#461);
#479=PRODUCT_DEFINITION_CONTEXT('3D Mechanical Parts',#487,'design');
#480=PRODUCT_DEFINITION('Geh\X\E4use_OY156000','Geh\X\E4use_OY156000',#483,
#479);
#481=PRODUCT_DEFINITION('Anschluss_OY156000','Anschluss_OY156000',#484,
#479);
#482=PRODUCT_DEFINITION('OY156000','OY156000',#485,#479);
#483=PRODUCT_DEFINITION_FORMATION('',$,#489);
#484=PRODUCT_DEFINITION_FORMATION('',$,#490);
#485=PRODUCT_DEFINITION_FORMATION('',$,#491);
#486=APPLICATION_PROTOCOL_DEFINITION('international standard',
'automotive_design',2009,#487);
#487=APPLICATION_CONTEXT(
'Core Data for Automotive Mechanical Design Process');
#488=PRODUCT_CONTEXT('3D Mechanical Parts',#487,'mechanical');
#489=PRODUCT('Geh\X\E4use_OY156000','Geh\X\E4use_OY156000',$,(#488));
#490=PRODUCT('Anschluss_OY156000','Anschluss_OY156000',$,(#488));
#491=PRODUCT('OY156000','OY156000',$,(#488));
#492=PRESENTATION_STYLE_ASSIGNMENT((#495));
#493=PRESENTATION_STYLE_ASSIGNMENT((#496));
#494=PRESENTATION_STYLE_ASSIGNMENT((#497));
#495=SURFACE_STYLE_USAGE(.BOTH.,#498);
#496=SURFACE_STYLE_USAGE(.BOTH.,#499);
#497=SURFACE_STYLE_USAGE(.BOTH.,#500);
#498=SURFACE_SIDE_STYLE($,(#501));
#499=SURFACE_SIDE_STYLE($,(#502));
#500=SURFACE_SIDE_STYLE($,(#503));
#501=SURFACE_STYLE_FILL_AREA(#504);
#502=SURFACE_STYLE_FILL_AREA(#505);
#503=SURFACE_STYLE_FILL_AREA(#506);
#504=FILL_AREA_STYLE($,(#507));
#505=FILL_AREA_STYLE($,(#508));
#506=FILL_AREA_STYLE($,(#509));
#507=FILL_AREA_STYLE_COLOUR($,#510);
#508=FILL_AREA_STYLE_COLOUR($,#511);
#509=FILL_AREA_STYLE_COLOUR($,#512);
#510=COLOUR_RGB('',0.749019607843137,0.749019607843137,0.749019607843137);
#511=COLOUR_RGB('',0.32156862745098,0.32156862745098,0.32156862745098);
#512=COLOUR_RGB('',0.752941176470588,0.752941176470588,0.752941176470588);
ENDSEC;
END-ISO-10303-21;
