ISO-10303-21;
HEADER;
/* Generated by software containing ST-Developer
 * from STEP Tools, Inc. (www.steptools.com) 
 */

FILE_DESCRIPTION(
/* description */ (''),
/* implementation_level */ '2;1');

FILE_NAME(
/* name */ 'C:\\Users\\wattenberg\\Desktop\\AY000104.stp',
/* time_stamp */ '2014-01-07T14:43:35+01:00',
/* author */ ('Wattenberg'),
/* organization */ (''),
/* preprocessor_version */ 'ST-DEVELOPER v15.2',
/* originating_system */ 'Autodesk Inventor 2014',
/* authorisation */ '');

FILE_SCHEMA (('AUTOMOTIVE_DESIGN { 1 0 10303 214 3 1 1 }'));
ENDSEC;

DATA;
#10=ITEM_DEFINED_TRANSFORMATION($,$,#337,#379);
#11=ITEM_DEFINED_TRANSFORMATION($,$,#337,#380);
#12=(
REPRESENTATION_RELATIONSHIP($,$,#599,#600)
REPRESENTATION_RELATIONSHIP_WITH_TRANSFORMATION(#10)
SHAPE_REPRESENTATION_RELATIONSHIP()
);
#13=(
REPRESENTATION_RELATIONSHIP($,$,#599,#600)
REPRESENTATION_RELATIONSHIP_WITH_TRANSFORMATION(#11)
SHAPE_REPRESENTATION_RELATIONSHIP()
);
#14=CONTEXT_DEPENDENT_SHAPE_REPRESENTATION(#12,#597);
#15=CONTEXT_DEPENDENT_SHAPE_REPRESENTATION(#13,#598);
#16=NEXT_ASSEMBLY_USAGE_OCCURRENCE('AY000104:1',$,$,#603,#602,$);
#17=NEXT_ASSEMBLY_USAGE_OCCURRENCE('AY000104:2',$,$,#603,#602,$);
#18=SHAPE_REPRESENTATION_RELATIONSHIP('SRR','None',#599,#19);
#19=ADVANCED_BREP_SHAPE_REPRESENTATION($,(#336),#585);
#20=STYLED_ITEM($,(#611),#336);
#21=CONICAL_SURFACE($,#362,6.5,44.9999999999999);
#22=CONICAL_SURFACE($,#366,6.5,45.0000000000001);
#23=FACE_BOUND($,#65,.T.);
#24=FACE_BOUND($,#66,.T.);
#25=FACE_BOUND($,#69,.T.);
#26=FACE_BOUND($,#70,.T.);
#27=FACE_BOUND($,#74,.T.);
#28=FACE_BOUND($,#75,.T.);
#29=FACE_BOUND($,#79,.T.);
#30=FACE_BOUND($,#81,.T.);
#31=FACE_BOUND($,#83,.T.);
#32=FACE_BOUND($,#85,.T.);
#33=FACE_BOUND($,#87,.T.);
#34=FACE_BOUND($,#89,.T.);
#35=FACE_BOUND($,#91,.T.);
#36=FACE_BOUND($,#93,.T.);
#37=PLANE($,#341);
#38=PLANE($,#344);
#39=PLANE($,#349);
#40=PLANE($,#354);
#41=PLANE($,#356);
#42=PLANE($,#370);
#43=PLANE($,#373);
#44=PLANE($,#376);
#45=PLANE($,#377);
#46=FACE_OUTER_BOUND($,#64,.T.);
#47=FACE_OUTER_BOUND($,#67,.T.);
#48=FACE_OUTER_BOUND($,#68,.T.);
#49=FACE_OUTER_BOUND($,#71,.T.);
#50=FACE_OUTER_BOUND($,#72,.T.);
#51=FACE_OUTER_BOUND($,#73,.T.);
#52=FACE_OUTER_BOUND($,#76,.T.);
#53=FACE_OUTER_BOUND($,#77,.T.);
#54=FACE_OUTER_BOUND($,#78,.T.);
#55=FACE_OUTER_BOUND($,#80,.T.);
#56=FACE_OUTER_BOUND($,#82,.T.);
#57=FACE_OUTER_BOUND($,#84,.T.);
#58=FACE_OUTER_BOUND($,#86,.T.);
#59=FACE_OUTER_BOUND($,#88,.T.);
#60=FACE_OUTER_BOUND($,#90,.T.);
#61=FACE_OUTER_BOUND($,#92,.T.);
#62=FACE_OUTER_BOUND($,#94,.T.);
#63=FACE_OUTER_BOUND($,#95,.T.);
#64=EDGE_LOOP($,(#226,#227,#228,#229));
#65=EDGE_LOOP($,(#230));
#66=EDGE_LOOP($,(#231,#232,#233,#234,#235,#236));
#67=EDGE_LOOP($,(#237,#238,#239,#240,#241,#242));
#68=EDGE_LOOP($,(#243,#244,#245,#246));
#69=EDGE_LOOP($,(#247));
#70=EDGE_LOOP($,(#248,#249,#250,#251,#252,#253));
#71=EDGE_LOOP($,(#254,#255,#256,#257));
#72=EDGE_LOOP($,(#258,#259,#260,#261,#262,#263));
#73=EDGE_LOOP($,(#264,#265,#266,#267,#268,#269,#270,#271));
#74=EDGE_LOOP($,(#272));
#75=EDGE_LOOP($,(#273));
#76=EDGE_LOOP($,(#274,#275,#276,#277));
#77=EDGE_LOOP($,(#278,#279,#280,#281));
#78=EDGE_LOOP($,(#282));
#79=EDGE_LOOP($,(#283));
#80=EDGE_LOOP($,(#284));
#81=EDGE_LOOP($,(#285));
#82=EDGE_LOOP($,(#286));
#83=EDGE_LOOP($,(#287));
#84=EDGE_LOOP($,(#288));
#85=EDGE_LOOP($,(#289));
#86=EDGE_LOOP($,(#290));
#87=EDGE_LOOP($,(#291));
#88=EDGE_LOOP($,(#292));
#89=EDGE_LOOP($,(#293));
#90=EDGE_LOOP($,(#294));
#91=EDGE_LOOP($,(#295));
#92=EDGE_LOOP($,(#296));
#93=EDGE_LOOP($,(#297));
#94=EDGE_LOOP($,(#298,#299,#300,#301));
#95=EDGE_LOOP($,(#302,#303,#304,#305));
#96=LINE($,#495,#116);
#97=LINE($,#498,#117);
#98=LINE($,#503,#118);
#99=LINE($,#505,#119);
#100=LINE($,#507,#120);
#101=LINE($,#510,#121);
#102=LINE($,#513,#122);
#103=LINE($,#515,#123);
#104=LINE($,#517,#124);
#105=LINE($,#524,#125);
#106=LINE($,#529,#126);
#107=LINE($,#533,#127);
#108=LINE($,#534,#128);
#109=LINE($,#539,#129);
#110=LINE($,#540,#130);
#111=LINE($,#543,#131);
#112=LINE($,#544,#132);
#113=LINE($,#548,#133);
#114=LINE($,#550,#134);
#115=LINE($,#556,#135);
#116=VECTOR($,#387,20.);
#117=VECTOR($,#390,20.);
#118=VECTOR($,#395,7.5);
#119=VECTOR($,#396,30.);
#120=VECTOR($,#397,7.5);
#121=VECTOR($,#400,16.);
#122=VECTOR($,#403,45.);
#123=VECTOR($,#404,20.);
#124=VECTOR($,#405,7.5);
#125=VECTOR($,#414,20.);
#126=VECTOR($,#419,16.);
#127=VECTOR($,#422,7.5);
#128=VECTOR($,#423,30.);
#129=VECTOR($,#428,20.);
#130=VECTOR($,#429,20.);
#131=VECTOR($,#432,45.);
#132=VECTOR($,#433,20.);
#133=VECTOR($,#438,16.);
#134=VECTOR($,#441,16.);
#135=VECTOR($,#448,20.);
#136=CIRCLE($,#339,7.);
#137=CIRCLE($,#340,7.);
#138=CIRCLE($,#342,3.25);
#139=CIRCLE($,#343,7.);
#140=CIRCLE($,#345,15.);
#141=CIRCLE($,#347,7.);
#142=CIRCLE($,#348,7.);
#143=CIRCLE($,#350,3.25);
#144=CIRCLE($,#351,7.);
#145=CIRCLE($,#353,7.);
#146=CIRCLE($,#355,15.);
#147=CIRCLE($,#357,7.);
#148=CIRCLE($,#358,7.);
#149=CIRCLE($,#359,7.);
#150=CIRCLE($,#363,6.);
#151=CIRCLE($,#365,6.);
#152=CIRCLE($,#367,6.);
#153=CIRCLE($,#369,6.);
#154=CIRCLE($,#371,3.25);
#155=CIRCLE($,#374,3.25);
#156=VERTEX_POINT($,#491);
#157=VERTEX_POINT($,#492);
#158=VERTEX_POINT($,#494);
#159=VERTEX_POINT($,#496);
#160=VERTEX_POINT($,#500);
#161=VERTEX_POINT($,#502);
#162=VERTEX_POINT($,#504);
#163=VERTEX_POINT($,#506);
#164=VERTEX_POINT($,#508);
#165=VERTEX_POINT($,#512);
#166=VERTEX_POINT($,#514);
#167=VERTEX_POINT($,#516);
#168=VERTEX_POINT($,#520);
#169=VERTEX_POINT($,#522);
#170=VERTEX_POINT($,#526);
#171=VERTEX_POINT($,#528);
#172=VERTEX_POINT($,#530);
#173=VERTEX_POINT($,#532);
#174=VERTEX_POINT($,#536);
#175=VERTEX_POINT($,#537);
#176=VERTEX_POINT($,#542);
#177=VERTEX_POINT($,#547);
#178=VERTEX_POINT($,#551);
#179=VERTEX_POINT($,#553);
#180=VERTEX_POINT($,#559);
#181=VERTEX_POINT($,#562);
#182=VERTEX_POINT($,#565);
#183=VERTEX_POINT($,#568);
#184=VERTEX_POINT($,#571);
#185=VERTEX_POINT($,#575);
#186=EDGE_CURVE($,#156,#157,#136,.T.);
#187=EDGE_CURVE($,#157,#158,#96,.T.);
#188=EDGE_CURVE($,#158,#159,#137,.T.);
#189=EDGE_CURVE($,#159,#156,#97,.T.);
#190=EDGE_CURVE($,#160,#160,#138,.T.);
#191=EDGE_CURVE($,#161,#158,#98,.T.);
#192=EDGE_CURVE($,#161,#162,#99,.T.);
#193=EDGE_CURVE($,#163,#162,#100,.T.);
#194=EDGE_CURVE($,#164,#163,#139,.T.);
#195=EDGE_CURVE($,#164,#159,#101,.T.);
#196=EDGE_CURVE($,#157,#165,#102,.T.);
#197=EDGE_CURVE($,#166,#165,#103,.T.);
#198=EDGE_CURVE($,#166,#167,#104,.T.);
#199=EDGE_CURVE($,#167,#161,#140,.T.);
#200=EDGE_CURVE($,#168,#166,#141,.T.);
#201=EDGE_CURVE($,#165,#169,#142,.T.);
#202=EDGE_CURVE($,#169,#168,#105,.T.);
#203=EDGE_CURVE($,#170,#170,#143,.T.);
#204=EDGE_CURVE($,#171,#168,#106,.T.);
#205=EDGE_CURVE($,#172,#171,#144,.T.);
#206=EDGE_CURVE($,#173,#172,#107,.T.);
#207=EDGE_CURVE($,#173,#167,#108,.T.);
#208=EDGE_CURVE($,#174,#175,#145,.T.);
#209=EDGE_CURVE($,#175,#172,#109,.T.);
#210=EDGE_CURVE($,#171,#174,#110,.T.);
#211=EDGE_CURVE($,#175,#176,#111,.T.);
#212=EDGE_CURVE($,#163,#176,#112,.T.);
#213=EDGE_CURVE($,#162,#173,#146,.T.);
#214=EDGE_CURVE($,#177,#156,#113,.T.);
#215=EDGE_CURVE($,#176,#177,#147,.T.);
#216=EDGE_CURVE($,#174,#169,#114,.T.);
#217=EDGE_CURVE($,#178,#178,#148,.T.);
#218=EDGE_CURVE($,#179,#179,#149,.T.);
#219=EDGE_CURVE($,#177,#164,#115,.T.);
#220=EDGE_CURVE($,#180,#180,#150,.T.);
#221=EDGE_CURVE($,#181,#181,#151,.T.);
#222=EDGE_CURVE($,#182,#182,#152,.T.);
#223=EDGE_CURVE($,#183,#183,#153,.T.);
#224=EDGE_CURVE($,#184,#184,#154,.T.);
#225=EDGE_CURVE($,#185,#185,#155,.T.);
#226=ORIENTED_EDGE($,*,*,#186,.T.);
#227=ORIENTED_EDGE($,*,*,#187,.T.);
#228=ORIENTED_EDGE($,*,*,#188,.T.);
#229=ORIENTED_EDGE($,*,*,#189,.T.);
#230=ORIENTED_EDGE($,*,*,#190,.T.);
#231=ORIENTED_EDGE($,*,*,#188,.F.);
#232=ORIENTED_EDGE($,*,*,#191,.F.);
#233=ORIENTED_EDGE($,*,*,#192,.T.);
#234=ORIENTED_EDGE($,*,*,#193,.F.);
#235=ORIENTED_EDGE($,*,*,#194,.F.);
#236=ORIENTED_EDGE($,*,*,#195,.T.);
#237=ORIENTED_EDGE($,*,*,#187,.F.);
#238=ORIENTED_EDGE($,*,*,#196,.T.);
#239=ORIENTED_EDGE($,*,*,#197,.F.);
#240=ORIENTED_EDGE($,*,*,#198,.T.);
#241=ORIENTED_EDGE($,*,*,#199,.T.);
#242=ORIENTED_EDGE($,*,*,#191,.T.);
#243=ORIENTED_EDGE($,*,*,#200,.T.);
#244=ORIENTED_EDGE($,*,*,#197,.T.);
#245=ORIENTED_EDGE($,*,*,#201,.T.);
#246=ORIENTED_EDGE($,*,*,#202,.T.);
#247=ORIENTED_EDGE($,*,*,#203,.T.);
#248=ORIENTED_EDGE($,*,*,#200,.F.);
#249=ORIENTED_EDGE($,*,*,#204,.F.);
#250=ORIENTED_EDGE($,*,*,#205,.F.);
#251=ORIENTED_EDGE($,*,*,#206,.F.);
#252=ORIENTED_EDGE($,*,*,#207,.T.);
#253=ORIENTED_EDGE($,*,*,#198,.F.);
#254=ORIENTED_EDGE($,*,*,#208,.T.);
#255=ORIENTED_EDGE($,*,*,#209,.T.);
#256=ORIENTED_EDGE($,*,*,#205,.T.);
#257=ORIENTED_EDGE($,*,*,#210,.T.);
#258=ORIENTED_EDGE($,*,*,#209,.F.);
#259=ORIENTED_EDGE($,*,*,#211,.T.);
#260=ORIENTED_EDGE($,*,*,#212,.F.);
#261=ORIENTED_EDGE($,*,*,#193,.T.);
#262=ORIENTED_EDGE($,*,*,#213,.T.);
#263=ORIENTED_EDGE($,*,*,#206,.T.);
#264=ORIENTED_EDGE($,*,*,#186,.F.);
#265=ORIENTED_EDGE($,*,*,#214,.F.);
#266=ORIENTED_EDGE($,*,*,#215,.F.);
#267=ORIENTED_EDGE($,*,*,#211,.F.);
#268=ORIENTED_EDGE($,*,*,#208,.F.);
#269=ORIENTED_EDGE($,*,*,#216,.T.);
#270=ORIENTED_EDGE($,*,*,#201,.F.);
#271=ORIENTED_EDGE($,*,*,#196,.F.);
#272=ORIENTED_EDGE($,*,*,#217,.F.);
#273=ORIENTED_EDGE($,*,*,#218,.F.);
#274=ORIENTED_EDGE($,*,*,#194,.T.);
#275=ORIENTED_EDGE($,*,*,#212,.T.);
#276=ORIENTED_EDGE($,*,*,#215,.T.);
#277=ORIENTED_EDGE($,*,*,#219,.T.);
#278=ORIENTED_EDGE($,*,*,#192,.F.);
#279=ORIENTED_EDGE($,*,*,#199,.F.);
#280=ORIENTED_EDGE($,*,*,#207,.F.);
#281=ORIENTED_EDGE($,*,*,#213,.F.);
#282=ORIENTED_EDGE($,*,*,#220,.T.);
#283=ORIENTED_EDGE($,*,*,#218,.T.);
#284=ORIENTED_EDGE($,*,*,#221,.F.);
#285=ORIENTED_EDGE($,*,*,#220,.F.);
#286=ORIENTED_EDGE($,*,*,#222,.T.);
#287=ORIENTED_EDGE($,*,*,#217,.T.);
#288=ORIENTED_EDGE($,*,*,#223,.F.);
#289=ORIENTED_EDGE($,*,*,#222,.F.);
#290=ORIENTED_EDGE($,*,*,#221,.T.);
#291=ORIENTED_EDGE($,*,*,#224,.F.);
#292=ORIENTED_EDGE($,*,*,#190,.F.);
#293=ORIENTED_EDGE($,*,*,#224,.T.);
#294=ORIENTED_EDGE($,*,*,#223,.T.);
#295=ORIENTED_EDGE($,*,*,#225,.F.);
#296=ORIENTED_EDGE($,*,*,#203,.F.);
#297=ORIENTED_EDGE($,*,*,#225,.T.);
#298=ORIENTED_EDGE($,*,*,#189,.F.);
#299=ORIENTED_EDGE($,*,*,#195,.F.);
#300=ORIENTED_EDGE($,*,*,#219,.F.);
#301=ORIENTED_EDGE($,*,*,#214,.T.);
#302=ORIENTED_EDGE($,*,*,#202,.F.);
#303=ORIENTED_EDGE($,*,*,#216,.F.);
#304=ORIENTED_EDGE($,*,*,#210,.F.);
#305=ORIENTED_EDGE($,*,*,#204,.T.);
#306=CYLINDRICAL_SURFACE($,#338,7.);
#307=CYLINDRICAL_SURFACE($,#346,7.);
#308=CYLINDRICAL_SURFACE($,#352,7.);
#309=CYLINDRICAL_SURFACE($,#360,7.);
#310=CYLINDRICAL_SURFACE($,#361,15.);
#311=CYLINDRICAL_SURFACE($,#364,6.);
#312=CYLINDRICAL_SURFACE($,#368,6.);
#313=CYLINDRICAL_SURFACE($,#372,3.25);
#314=CYLINDRICAL_SURFACE($,#375,3.25);
#315=ADVANCED_FACE($,(#46),#306,.T.);
#316=ADVANCED_FACE($,(#23,#24),#37,.T.);
#317=ADVANCED_FACE($,(#47),#38,.T.);
#318=ADVANCED_FACE($,(#48),#307,.T.);
#319=ADVANCED_FACE($,(#25,#26),#39,.T.);
#320=ADVANCED_FACE($,(#49),#308,.T.);
#321=ADVANCED_FACE($,(#50),#40,.F.);
#322=ADVANCED_FACE($,(#51,#27,#28),#41,.T.);
#323=ADVANCED_FACE($,(#52),#309,.T.);
#324=ADVANCED_FACE($,(#53),#310,.F.);
#325=ADVANCED_FACE($,(#54,#29),#21,.F.);
#326=ADVANCED_FACE($,(#55,#30),#311,.F.);
#327=ADVANCED_FACE($,(#56,#31),#22,.F.);
#328=ADVANCED_FACE($,(#57,#32),#312,.F.);
#329=ADVANCED_FACE($,(#58,#33),#42,.T.);
#330=ADVANCED_FACE($,(#59,#34),#313,.F.);
#331=ADVANCED_FACE($,(#60,#35),#43,.T.);
#332=ADVANCED_FACE($,(#61,#36),#314,.F.);
#333=ADVANCED_FACE($,(#62),#44,.T.);
#334=ADVANCED_FACE($,(#63),#45,.T.);
#335=CLOSED_SHELL($,(#315,#316,#317,#318,#319,#320,#321,#322,#323,#324,
#325,#326,#327,#328,#329,#330,#331,#332,#333,#334));
#336=MANIFOLD_SOLID_BREP('Volumenk\X\F6rper1',#335);
#337=AXIS2_PLACEMENT_3D('placement',#489,#381,#382);
#338=AXIS2_PLACEMENT_3D($,#490,#383,#384);
#339=AXIS2_PLACEMENT_3D($,#493,#385,#386);
#340=AXIS2_PLACEMENT_3D($,#497,#388,#389);
#341=AXIS2_PLACEMENT_3D($,#499,#391,#392);
#342=AXIS2_PLACEMENT_3D($,#501,#393,#394);
#343=AXIS2_PLACEMENT_3D($,#509,#398,#399);
#344=AXIS2_PLACEMENT_3D($,#511,#401,#402);
#345=AXIS2_PLACEMENT_3D($,#518,#406,#407);
#346=AXIS2_PLACEMENT_3D($,#519,#408,#409);
#347=AXIS2_PLACEMENT_3D($,#521,#410,#411);
#348=AXIS2_PLACEMENT_3D($,#523,#412,#413);
#349=AXIS2_PLACEMENT_3D($,#525,#415,#416);
#350=AXIS2_PLACEMENT_3D($,#527,#417,#418);
#351=AXIS2_PLACEMENT_3D($,#531,#420,#421);
#352=AXIS2_PLACEMENT_3D($,#535,#424,#425);
#353=AXIS2_PLACEMENT_3D($,#538,#426,#427);
#354=AXIS2_PLACEMENT_3D($,#541,#430,#431);
#355=AXIS2_PLACEMENT_3D($,#545,#434,#435);
#356=AXIS2_PLACEMENT_3D($,#546,#436,#437);
#357=AXIS2_PLACEMENT_3D($,#549,#439,#440);
#358=AXIS2_PLACEMENT_3D($,#552,#442,#443);
#359=AXIS2_PLACEMENT_3D($,#554,#444,#445);
#360=AXIS2_PLACEMENT_3D($,#555,#446,#447);
#361=AXIS2_PLACEMENT_3D($,#557,#449,#450);
#362=AXIS2_PLACEMENT_3D($,#558,#451,#452);
#363=AXIS2_PLACEMENT_3D($,#560,#453,#454);
#364=AXIS2_PLACEMENT_3D($,#561,#455,#456);
#365=AXIS2_PLACEMENT_3D($,#563,#457,#458);
#366=AXIS2_PLACEMENT_3D($,#564,#459,#460);
#367=AXIS2_PLACEMENT_3D($,#566,#461,#462);
#368=AXIS2_PLACEMENT_3D($,#567,#463,#464);
#369=AXIS2_PLACEMENT_3D($,#569,#465,#466);
#370=AXIS2_PLACEMENT_3D($,#570,#467,#468);
#371=AXIS2_PLACEMENT_3D($,#572,#469,#470);
#372=AXIS2_PLACEMENT_3D($,#573,#471,#472);
#373=AXIS2_PLACEMENT_3D($,#574,#473,#474);
#374=AXIS2_PLACEMENT_3D($,#576,#475,#476);
#375=AXIS2_PLACEMENT_3D($,#577,#477,#478);
#376=AXIS2_PLACEMENT_3D($,#578,#479,#480);
#377=AXIS2_PLACEMENT_3D($,#579,#481,#482);
#378=AXIS2_PLACEMENT_3D('placement',#580,#483,#484);
#379=AXIS2_PLACEMENT_3D($,#581,#485,#486);
#380=AXIS2_PLACEMENT_3D($,#582,#487,#488);
#381=DIRECTION('axis',(0.,0.,1.));
#382=DIRECTION('refdir',(1.,0.,0.));
#383=DIRECTION('center_axis',(0.,-1.,0.));
#384=DIRECTION('ref_axis',(-0.707106781186548,0.,0.707106781186547));
#385=DIRECTION('center_axis',(0.,1.,0.));
#386=DIRECTION('ref_axis',(-0.707106781186548,0.,0.707106781186547));
#387=DIRECTION($,(0.,1.,0.));
#388=DIRECTION('center_axis',(0.,-1.,0.));
#389=DIRECTION('ref_axis',(-0.707106781186548,0.,0.707106781186547));
#390=DIRECTION($,(0.,-1.,0.));
#391=DIRECTION('center_axis',(0.,1.,0.));
#392=DIRECTION('ref_axis',(-1.,0.,0.));
#393=DIRECTION('center_axis',(0.,-1.,0.));
#394=DIRECTION('ref_axis',(1.,0.,0.));
#395=DIRECTION($,(-1.,0.,0.));
#396=DIRECTION($,(0.,0.,-1.));
#397=DIRECTION($,(1.,0.,0.));
#398=DIRECTION('center_axis',(0.,-1.,0.));
#399=DIRECTION('ref_axis',(-0.707106781186548,0.,-0.707106781186547));
#400=DIRECTION($,(0.,0.,1.));
#401=DIRECTION('center_axis',(0.,0.,1.));
#402=DIRECTION('ref_axis',(1.,0.,0.));
#403=DIRECTION($,(1.,0.,0.));
#404=DIRECTION($,(0.,-1.,0.));
#405=DIRECTION($,(-1.,0.,0.));
#406=DIRECTION('center_axis',(0.,0.,-1.));
#407=DIRECTION('ref_axis',(-1.,0.,0.));
#408=DIRECTION('center_axis',(0.,1.,0.));
#409=DIRECTION('ref_axis',(0.707106781186547,0.,0.707106781186548));
#410=DIRECTION('center_axis',(0.,-1.,0.));
#411=DIRECTION('ref_axis',(0.707106781186547,0.,0.707106781186548));
#412=DIRECTION('center_axis',(0.,1.,0.));
#413=DIRECTION('ref_axis',(0.707106781186547,0.,0.707106781186548));
#414=DIRECTION($,(0.,1.,0.));
#415=DIRECTION('center_axis',(0.,1.,0.));
#416=DIRECTION('ref_axis',(-1.,0.,0.));
#417=DIRECTION('center_axis',(0.,-1.,0.));
#418=DIRECTION('ref_axis',(1.,0.,0.));
#419=DIRECTION($,(0.,0.,1.));
#420=DIRECTION('center_axis',(0.,-1.,0.));
#421=DIRECTION('ref_axis',(0.707106781186547,0.,-0.707106781186548));
#422=DIRECTION($,(1.,0.,0.));
#423=DIRECTION($,(0.,0.,1.));
#424=DIRECTION('center_axis',(0.,-1.,0.));
#425=DIRECTION('ref_axis',(0.707106781186547,0.,-0.707106781186548));
#426=DIRECTION('center_axis',(0.,1.,0.));
#427=DIRECTION('ref_axis',(0.707106781186547,0.,-0.707106781186548));
#428=DIRECTION($,(0.,1.,0.));
#429=DIRECTION($,(0.,-1.,0.));
#430=DIRECTION('center_axis',(0.,0.,1.));
#431=DIRECTION('ref_axis',(1.,0.,0.));
#432=DIRECTION($,(-1.,0.,0.));
#433=DIRECTION($,(0.,-1.,0.));
#434=DIRECTION('center_axis',(0.,0.,1.));
#435=DIRECTION('ref_axis',(-1.,0.,0.));
#436=DIRECTION('center_axis',(0.,-1.,0.));
#437=DIRECTION('ref_axis',(1.,0.,0.));
#438=DIRECTION($,(0.,0.,1.));
#439=DIRECTION('center_axis',(0.,1.,0.));
#440=DIRECTION('ref_axis',(-0.707106781186548,0.,-0.707106781186547));
#441=DIRECTION($,(0.,0.,1.));
#442=DIRECTION('center_axis',(0.,-1.,0.));
#443=DIRECTION('ref_axis',(-1.,0.,0.));
#444=DIRECTION('center_axis',(0.,-1.,0.));
#445=DIRECTION('ref_axis',(-1.,0.,0.));
#446=DIRECTION('center_axis',(0.,1.,0.));
#447=DIRECTION('ref_axis',(-0.707106781186548,0.,-0.707106781186547));
#448=DIRECTION($,(0.,1.,0.));
#449=DIRECTION('center_axis',(0.,0.,-1.));
#450=DIRECTION('ref_axis',(-1.,0.,0.));
#451=DIRECTION('center_axis',(0.,-1.,0.));
#452=DIRECTION('ref_axis',(-1.,0.,0.));
#453=DIRECTION('center_axis',(0.,1.,0.));
#454=DIRECTION('ref_axis',(-1.,0.,0.));
#455=DIRECTION('center_axis',(0.,-1.,0.));
#456=DIRECTION('ref_axis',(1.,0.,0.));
#457=DIRECTION('center_axis',(0.,-1.,0.));
#458=DIRECTION('ref_axis',(1.,0.,0.));
#459=DIRECTION('center_axis',(0.,-1.,0.));
#460=DIRECTION('ref_axis',(-1.,0.,0.));
#461=DIRECTION('center_axis',(0.,1.,0.));
#462=DIRECTION('ref_axis',(-1.,0.,0.));
#463=DIRECTION('center_axis',(0.,-1.,0.));
#464=DIRECTION('ref_axis',(1.,0.,0.));
#465=DIRECTION('center_axis',(0.,-1.,0.));
#466=DIRECTION('ref_axis',(1.,0.,0.));
#467=DIRECTION('center_axis',(0.,-1.,0.));
#468=DIRECTION('ref_axis',(1.,0.,0.));
#469=DIRECTION('center_axis',(0.,-1.,0.));
#470=DIRECTION('ref_axis',(1.,0.,0.));
#471=DIRECTION('center_axis',(0.,-1.,0.));
#472=DIRECTION('ref_axis',(1.,0.,0.));
#473=DIRECTION('center_axis',(0.,-1.,0.));
#474=DIRECTION('ref_axis',(1.,0.,0.));
#475=DIRECTION('center_axis',(0.,-1.,0.));
#476=DIRECTION('ref_axis',(1.,0.,0.));
#477=DIRECTION('center_axis',(0.,-1.,0.));
#478=DIRECTION('ref_axis',(1.,0.,0.));
#479=DIRECTION('center_axis',(-1.,0.,0.));
#480=DIRECTION('ref_axis',(0.,-1.,0.));
#481=DIRECTION('center_axis',(1.,0.,0.));
#482=DIRECTION('ref_axis',(0.,1.,0.));
#483=DIRECTION('axis',(0.,0.,1.));
#484=DIRECTION('refdir',(1.,0.,0.));
#485=DIRECTION($,(0.,0.,1.));
#486=DIRECTION($,(1.,0.,0.));
#487=DIRECTION($,(0.,0.,1.));
#488=DIRECTION($,(-1.,0.,0.));
#489=CARTESIAN_POINT('',(0.,0.,0.));
#490=CARTESIAN_POINT('Origin',(-52.,15.,23.));
#491=CARTESIAN_POINT('',(-59.,0.,23.));
#492=CARTESIAN_POINT('',(-52.,0.,30.));
#493=CARTESIAN_POINT('Origin',(-52.,0.,23.));
#494=CARTESIAN_POINT('',(-52.,20.,30.));
#495=CARTESIAN_POINT($,(-52.,15.,30.));
#496=CARTESIAN_POINT('',(-59.,20.,23.));
#497=CARTESIAN_POINT('Origin',(-52.,20.,23.));
#498=CARTESIAN_POINT($,(-59.,15.,23.));
#499=CARTESIAN_POINT('Origin',(0.,20.,0.));
#500=CARTESIAN_POINT('',(-53.25,20.,15.));
#501=CARTESIAN_POINT('Origin',(-50.,20.,15.));
#502=CARTESIAN_POINT('',(-44.5,20.,30.));
#503=CARTESIAN_POINT($,(-59.,20.,30.));
#504=CARTESIAN_POINT('',(-44.5,20.,0.));
#505=CARTESIAN_POINT($,(-44.5,20.,69.1447756522501));
#506=CARTESIAN_POINT('',(-52.,20.,0.));
#507=CARTESIAN_POINT($,(-59.,20.,0.));
#508=CARTESIAN_POINT('',(-59.,20.,7.));
#509=CARTESIAN_POINT('Origin',(-52.,20.,7.));
#510=CARTESIAN_POINT($,(-59.,20.,0.));
#511=CARTESIAN_POINT('Origin',(-29.5,10.,30.));
#512=CARTESIAN_POINT('',(-7.,0.,30.));
#513=CARTESIAN_POINT($,(0.,0.,30.));
#514=CARTESIAN_POINT('',(-7.,20.,30.));
#515=CARTESIAN_POINT($,(-7.,5.,30.));
#516=CARTESIAN_POINT('',(-14.5,20.,30.));
#517=CARTESIAN_POINT($,(-59.,20.,30.));
#518=CARTESIAN_POINT('Origin',(-29.5,20.,30.));
#519=CARTESIAN_POINT('Origin',(-7.,5.,23.));
#520=CARTESIAN_POINT('',(0.,20.,23.));
#521=CARTESIAN_POINT('Origin',(-7.,20.,23.));
#522=CARTESIAN_POINT('',(0.,0.,23.));
#523=CARTESIAN_POINT('Origin',(-7.,0.,23.));
#524=CARTESIAN_POINT($,(0.,5.,23.));
#525=CARTESIAN_POINT('Origin',(0.,20.,0.));
#526=CARTESIAN_POINT('',(-12.25,20.,15.));
#527=CARTESIAN_POINT('Origin',(-9.00000000000001,20.,15.));
#528=CARTESIAN_POINT('',(0.,20.,7.));
#529=CARTESIAN_POINT($,(0.,20.,0.));
#530=CARTESIAN_POINT('',(-7.,20.,0.));
#531=CARTESIAN_POINT('Origin',(-7.,20.,7.));
#532=CARTESIAN_POINT('',(-14.5,20.,0.));
#533=CARTESIAN_POINT($,(-59.,20.,0.));
#534=CARTESIAN_POINT($,(-14.5,20.,69.1447756522501));
#535=CARTESIAN_POINT('Origin',(-7.,5.,7.));
#536=CARTESIAN_POINT('',(0.,0.,7.));
#537=CARTESIAN_POINT('',(-7.,0.,0.));
#538=CARTESIAN_POINT('Origin',(-7.,0.,7.));
#539=CARTESIAN_POINT($,(-7.,5.,0.));
#540=CARTESIAN_POINT($,(0.,5.,7.));
#541=CARTESIAN_POINT('Origin',(-29.5,10.,0.));
#542=CARTESIAN_POINT('',(-52.,0.,0.));
#543=CARTESIAN_POINT($,(0.,0.,0.));
#544=CARTESIAN_POINT($,(-52.,15.,0.));
#545=CARTESIAN_POINT('Origin',(-29.5,20.,0.));
#546=CARTESIAN_POINT('Origin',(-59.,0.,0.));
#547=CARTESIAN_POINT('',(-59.,0.,7.));
#548=CARTESIAN_POINT($,(-59.,0.,0.));
#549=CARTESIAN_POINT('Origin',(-52.,0.,7.));
#550=CARTESIAN_POINT($,(0.,0.,0.));
#551=CARTESIAN_POINT('',(-2.00000000000001,0.,15.));
#552=CARTESIAN_POINT('Origin',(-9.00000000000001,0.,15.));
#553=CARTESIAN_POINT('',(-43.,0.,15.));
#554=CARTESIAN_POINT('Origin',(-50.,0.,15.));
#555=CARTESIAN_POINT('Origin',(-52.,15.,7.));
#556=CARTESIAN_POINT($,(-59.,15.,7.));
#557=CARTESIAN_POINT('Origin',(-29.5,20.,69.1447756522501));
#558=CARTESIAN_POINT('Origin',(-50.,0.5,15.));
#559=CARTESIAN_POINT('',(-44.,1.,15.));
#560=CARTESIAN_POINT('Origin',(-50.,1.,15.));
#561=CARTESIAN_POINT('Origin',(-50.,3.75,15.));
#562=CARTESIAN_POINT('',(-44.,7.5,15.));
#563=CARTESIAN_POINT('Origin',(-50.,7.5,15.));
#564=CARTESIAN_POINT('Origin',(-9.00000000000001,0.5,15.));
#565=CARTESIAN_POINT('',(-3.00000000000001,1.,15.));
#566=CARTESIAN_POINT('Origin',(-9.00000000000001,1.,15.));
#567=CARTESIAN_POINT('Origin',(-9.00000000000001,3.75,15.));
#568=CARTESIAN_POINT('',(-3.00000000000001,7.5,15.));
#569=CARTESIAN_POINT('Origin',(-9.00000000000001,7.5,15.));
#570=CARTESIAN_POINT('Origin',(-50.,7.5,15.));
#571=CARTESIAN_POINT('',(-53.25,7.5,15.));
#572=CARTESIAN_POINT('Origin',(-50.,7.5,15.));
#573=CARTESIAN_POINT('Origin',(-50.,69.1447756522501,15.));
#574=CARTESIAN_POINT('Origin',(-9.00000000000001,7.5,15.));
#575=CARTESIAN_POINT('',(-12.25,7.5,15.));
#576=CARTESIAN_POINT('Origin',(-9.00000000000001,7.5,15.));
#577=CARTESIAN_POINT('Origin',(-9.00000000000001,69.1447756522501,15.));
#578=CARTESIAN_POINT('Origin',(-59.,20.,0.));
#579=CARTESIAN_POINT('Origin',(0.,0.,0.));
#580=CARTESIAN_POINT('',(0.,0.,0.));
#581=CARTESIAN_POINT($,(22.5633644535141,-40.1750868263675,-15.));
#582=CARTESIAN_POINT($,(-36.4366355464859,1.8249131736325,-15.));
#583=UNCERTAINTY_MEASURE_WITH_UNIT(LENGTH_MEASURE(0.01),#587,
'DISTANCE_ACCURACY_VALUE',
'Maximum model space distance between geometric entities at asserted c
onnectivities');
#584=UNCERTAINTY_MEASURE_WITH_UNIT(LENGTH_MEASURE(0.01),#587,
'DISTANCE_ACCURACY_VALUE',
'Maximum model space distance between geometric entities at asserted c
onnectivities');
#585=(
GEOMETRIC_REPRESENTATION_CONTEXT(3)
GLOBAL_UNCERTAINTY_ASSIGNED_CONTEXT((#583))
GLOBAL_UNIT_ASSIGNED_CONTEXT((#587,#590,#588))
REPRESENTATION_CONTEXT('','3D')
);
#586=(
GEOMETRIC_REPRESENTATION_CONTEXT(3)
GLOBAL_UNCERTAINTY_ASSIGNED_CONTEXT((#584))
GLOBAL_UNIT_ASSIGNED_CONTEXT((#587,#590,#588))
REPRESENTATION_CONTEXT('','3D')
);
#587=(
LENGTH_UNIT()
NAMED_UNIT(*)
SI_UNIT(.MILLI.,.METRE.)
);
#588=(
NAMED_UNIT(*)
SI_UNIT($,.STERADIAN.)
SOLID_ANGLE_UNIT()
);
#589=DIMENSIONAL_EXPONENTS(0.,0.,0.,0.,0.,0.,0.);
#590=(
CONVERSION_BASED_UNIT('degree',#592)
NAMED_UNIT(#589)
PLANE_ANGLE_UNIT()
);
#591=(
NAMED_UNIT(*)
PLANE_ANGLE_UNIT()
SI_UNIT($,.RADIAN.)
);
#592=PLANE_ANGLE_MEASURE_WITH_UNIT(PLANE_ANGLE_MEASURE(0.01745329252),#591);
#593=SHAPE_DEFINITION_REPRESENTATION(#595,#599);
#594=SHAPE_DEFINITION_REPRESENTATION(#596,#600);
#595=PRODUCT_DEFINITION_SHAPE('',$,#602);
#596=PRODUCT_DEFINITION_SHAPE('',$,#603);
#597=PRODUCT_DEFINITION_SHAPE($,$,#16);
#598=PRODUCT_DEFINITION_SHAPE($,$,#17);
#599=SHAPE_REPRESENTATION('',(#337),#585);
#600=SHAPE_REPRESENTATION('',(#378,#379,#380),#586);
#601=PRODUCT_DEFINITION_CONTEXT('3D Mechanical Parts',#607,'design');
#602=PRODUCT_DEFINITION('AY000104','AY000104',#604,#601);
#603=PRODUCT_DEFINITION('AY000104','AY000104',#605,#601);
#604=PRODUCT_DEFINITION_FORMATION('',$,#609);
#605=PRODUCT_DEFINITION_FORMATION('',$,#610);
#606=APPLICATION_PROTOCOL_DEFINITION('international standard',
'automotive_design',2009,#607);
#607=APPLICATION_CONTEXT(
'Core Data for Automotive Mechanical Design Process');
#608=PRODUCT_CONTEXT('3D Mechanical Parts',#607,'mechanical');
#609=PRODUCT('AY000104','AY000104',$,(#608));
#610=PRODUCT('AY000104','AY000104',$,(#608));
#611=PRESENTATION_STYLE_ASSIGNMENT((#612));
#612=SURFACE_STYLE_USAGE(.BOTH.,#613);
#613=SURFACE_SIDE_STYLE($,(#614));
#614=SURFACE_STYLE_FILL_AREA(#615);
#615=FILL_AREA_STYLE($,(#616));
#616=FILL_AREA_STYLE_COLOUR($,#617);
#617=COLOUR_RGB('',0.749019607843137,0.749019607843137,0.749019607843137);
ENDSEC;
END-ISO-10303-21;
