ISO-10303-21;
HEADER;
/* Generated by software containing ST-Developer
 * from STEP Tools, Inc. (www.steptools.com) 
 */

FILE_DESCRIPTION(
/* description */ (''),
/* implementation_level */ '2;1');

FILE_NAME(
/* name */ 
'C:\\Users\\mitarbeiter\\Desktop\\3D\\Imported Components\\LS06A521\\L
S06A521.stp',
/* time_stamp */ '2016-10-06T10:28:17+02:00',
/* author */ ('mitarbeiter'),
/* organization */ (''),
/* preprocessor_version */ 'ST-DEVELOPER v15.2',
/* originating_system */ 'Autodesk Inventor 2014',
/* authorisation */ '');

FILE_SCHEMA (('AUTOMOTIVE_DESIGN { 1 0 10303 214 3 1 1 }'));
ENDSEC;

DATA;
#10=SHAPE_REPRESENTATION_RELATIONSHIP('SRR','None',#222,#11);
#11=ADVANCED_BREP_SHAPE_REPRESENTATION($,(#102),#216);
#12=STYLED_ITEM($,(#230),#102);
#13=PLANE($,#107);
#14=PLANE($,#111);
#15=PLANE($,#113);
#16=FACE_BOUND($,#35,.T.);
#17=FACE_BOUND($,#37,.T.);
#18=FACE_BOUND($,#39,.T.);
#19=FACE_BOUND($,#42,.T.);
#20=FACE_BOUND($,#44,.T.);
#21=CIRCLE($,#106,1.5);
#22=CIRCLE($,#108,1.75);
#23=CIRCLE($,#110,1.75);
#24=CIRCLE($,#112,1.25);
#25=CIRCLE($,#114,1.25);
#26=FACE_OUTER_BOUND($,#33,.T.);
#27=FACE_OUTER_BOUND($,#34,.T.);
#28=FACE_OUTER_BOUND($,#36,.T.);
#29=FACE_OUTER_BOUND($,#38,.T.);
#30=FACE_OUTER_BOUND($,#40,.T.);
#31=FACE_OUTER_BOUND($,#41,.T.);
#32=FACE_OUTER_BOUND($,#43,.T.);
#33=EDGE_LOOP($,(#70,#71,#72,#73,#74));
#34=EDGE_LOOP($,(#75,#76,#77,#78,#79));
#35=EDGE_LOOP($,(#80));
#36=EDGE_LOOP($,(#81));
#37=EDGE_LOOP($,(#82));
#38=EDGE_LOOP($,(#83));
#39=EDGE_LOOP($,(#84));
#40=EDGE_LOOP($,(#85));
#41=EDGE_LOOP($,(#86));
#42=EDGE_LOOP($,(#87));
#43=EDGE_LOOP($,(#88));
#44=EDGE_LOOP($,(#89));
#45=B_SPLINE_CURVE_WITH_KNOTS($,3,(#146,#147,#148,#149,#150,#151,#152,#153,
#154,#155,#156,#157),.UNSPECIFIED.,.F.,.F.,(4,2,2,2,2,4),(0.,0.0312379944486233,
0.0624759888972465,0.124951977794493,0.184889041613145,0.244826105431798),
 .UNSPECIFIED.);
#46=B_SPLINE_CURVE_WITH_KNOTS($,3,(#159,#160,#161,#162,#163,#164,#165,#166),
 .UNSPECIFIED.,.F.,.F.,(4,2,2,4),(0.854352443932696,0.916828432829943,0.948066427278566,
0.979304421727189),.UNSPECIFIED.);
#47=B_SPLINE_CURVE_WITH_KNOTS($,3,(#168,#169,#170,#171,#172,#173),
 .UNSPECIFIED.,.F.,.F.,(4,2,4),(0.734478316295392,0.794415380114044,0.854352443932696),
 .UNSPECIFIED.);
#48=B_SPLINE_CURVE_WITH_KNOTS($,3,(#175,#176,#177,#178,#179,#180,#181,#182,
#183,#184,#185,#186,#187,#188,#189,#190,#191,#192),.UNSPECIFIED.,.F.,.F.,
(4,2,2,2,2,2,2,2,4),(0.364700233069102,0.427176221966348,0.458414216414972,
0.489652210863595,0.520890205312218,0.552128199760841,0.614604188658087,
0.674541252476739,0.734478316295392),.UNSPECIFIED.);
#49=B_SPLINE_CURVE_WITH_KNOTS($,3,(#193,#194,#195,#196,#197,#198),
 .UNSPECIFIED.,.F.,.F.,(4,2,4),(0.244826105431798,0.30476316925045,0.364700233069102),
 .UNSPECIFIED.);
#50=VERTEX_POINT($,#144);
#51=VERTEX_POINT($,#145);
#52=VERTEX_POINT($,#158);
#53=VERTEX_POINT($,#167);
#54=VERTEX_POINT($,#174);
#55=VERTEX_POINT($,#200);
#56=VERTEX_POINT($,#203);
#57=VERTEX_POINT($,#206);
#58=VERTEX_POINT($,#209);
#59=VERTEX_POINT($,#212);
#60=EDGE_CURVE($,#50,#51,#45,.T.);
#61=EDGE_CURVE($,#52,#50,#46,.T.);
#62=EDGE_CURVE($,#53,#52,#47,.T.);
#63=EDGE_CURVE($,#54,#53,#48,.T.);
#64=EDGE_CURVE($,#51,#54,#49,.T.);
#65=EDGE_CURVE($,#55,#55,#21,.T.);
#66=EDGE_CURVE($,#56,#56,#22,.T.);
#67=EDGE_CURVE($,#57,#57,#23,.T.);
#68=EDGE_CURVE($,#58,#58,#24,.T.);
#69=EDGE_CURVE($,#59,#59,#25,.T.);
#70=ORIENTED_EDGE($,*,*,#60,.F.);
#71=ORIENTED_EDGE($,*,*,#61,.F.);
#72=ORIENTED_EDGE($,*,*,#62,.F.);
#73=ORIENTED_EDGE($,*,*,#63,.F.);
#74=ORIENTED_EDGE($,*,*,#64,.F.);
#75=ORIENTED_EDGE($,*,*,#61,.T.);
#76=ORIENTED_EDGE($,*,*,#60,.T.);
#77=ORIENTED_EDGE($,*,*,#64,.T.);
#78=ORIENTED_EDGE($,*,*,#63,.T.);
#79=ORIENTED_EDGE($,*,*,#62,.T.);
#80=ORIENTED_EDGE($,*,*,#65,.F.);
#81=ORIENTED_EDGE($,*,*,#66,.F.);
#82=ORIENTED_EDGE($,*,*,#65,.T.);
#83=ORIENTED_EDGE($,*,*,#66,.T.);
#84=ORIENTED_EDGE($,*,*,#67,.F.);
#85=ORIENTED_EDGE($,*,*,#68,.T.);
#86=ORIENTED_EDGE($,*,*,#67,.T.);
#87=ORIENTED_EDGE($,*,*,#69,.F.);
#88=ORIENTED_EDGE($,*,*,#69,.T.);
#89=ORIENTED_EDGE($,*,*,#68,.F.);
#90=CYLINDRICAL_SURFACE($,#104,1.8);
#91=CYLINDRICAL_SURFACE($,#105,1.5);
#92=CYLINDRICAL_SURFACE($,#109,1.75);
#93=CYLINDRICAL_SURFACE($,#115,1.25);
#94=ADVANCED_FACE($,(#26),#90,.F.);
#95=ADVANCED_FACE($,(#27,#16),#91,.T.);
#96=ADVANCED_FACE($,(#28,#17),#13,.T.);
#97=ADVANCED_FACE($,(#29,#18),#92,.T.);
#98=ADVANCED_FACE($,(#30),#14,.T.);
#99=ADVANCED_FACE($,(#31,#19),#15,.T.);
#100=ADVANCED_FACE($,(#32,#20),#93,.T.);
#101=CLOSED_SHELL($,(#94,#95,#96,#97,#98,#99,#100));
#102=MANIFOLD_SOLID_BREP('LUMP19',#101);
#103=AXIS2_PLACEMENT_3D('placement',#142,#116,#117);
#104=AXIS2_PLACEMENT_3D($,#143,#118,#119);
#105=AXIS2_PLACEMENT_3D($,#199,#120,#121);
#106=AXIS2_PLACEMENT_3D($,#201,#122,#123);
#107=AXIS2_PLACEMENT_3D($,#202,#124,#125);
#108=AXIS2_PLACEMENT_3D($,#204,#126,#127);
#109=AXIS2_PLACEMENT_3D($,#205,#128,#129);
#110=AXIS2_PLACEMENT_3D($,#207,#130,#131);
#111=AXIS2_PLACEMENT_3D($,#208,#132,#133);
#112=AXIS2_PLACEMENT_3D($,#210,#134,#135);
#113=AXIS2_PLACEMENT_3D($,#211,#136,#137);
#114=AXIS2_PLACEMENT_3D($,#213,#138,#139);
#115=AXIS2_PLACEMENT_3D($,#214,#140,#141);
#116=DIRECTION('axis',(0.,0.,1.));
#117=DIRECTION('refdir',(1.,0.,0.));
#118=DIRECTION('center_axis',(0.,-0.707106781186548,-0.707106781186548));
#119=DIRECTION('ref_axis',(1.,0.,0.));
#120=DIRECTION('center_axis',(-1.,0.,-1.83690953073357E-016));
#121=DIRECTION('ref_axis',(-1.83690953073357E-016,0.,1.));
#122=DIRECTION('center_axis',(1.,0.,1.83690953073357E-016));
#123=DIRECTION('ref_axis',(-1.83690953073357E-016,0.,1.));
#124=DIRECTION('center_axis',(-1.,0.,0.));
#125=DIRECTION('ref_axis',(0.,1.,0.));
#126=DIRECTION('center_axis',(1.,0.,0.));
#127=DIRECTION('ref_axis',(0.,6.12303176911189E-017,1.));
#128=DIRECTION('center_axis',(1.,0.,0.));
#129=DIRECTION('ref_axis',(0.,6.12303176911189E-017,1.));
#130=DIRECTION('center_axis',(1.,0.,0.));
#131=DIRECTION('ref_axis',(0.,6.12303176911189E-017,1.));
#132=DIRECTION('center_axis',(1.,0.,0.));
#133=DIRECTION('ref_axis',(0.,1.,0.));
#134=DIRECTION('center_axis',(1.,0.,0.));
#135=DIRECTION('ref_axis',(0.,6.12303176911189E-017,1.));
#136=DIRECTION('center_axis',(1.,0.,0.));
#137=DIRECTION('ref_axis',(0.,1.,0.));
#138=DIRECTION('center_axis',(1.,0.,0.));
#139=DIRECTION('ref_axis',(0.,6.12303176911189E-017,1.));
#140=DIRECTION('center_axis',(1.,0.,0.));
#141=DIRECTION('ref_axis',(0.,6.12303176911189E-017,1.));
#142=CARTESIAN_POINT('',(0.,0.,0.));
#143=CARTESIAN_POINT('Origin',(-40.,0.,-8.88178419700125E-016));
#144=CARTESIAN_POINT('',(-39.0050125628934,1.06066017177982,-1.06066017177983));
#145=CARTESIAN_POINT('',(-38.2,1.06066017177982,1.06066017177982));
#146=CARTESIAN_POINT('Ctrl Pts',(-39.0050125628934,1.06066017177982,-1.06066017177983));
#147=CARTESIAN_POINT('Ctrl Pts',(-39.0050125628934,1.13428883079745,-0.987031512762198));
#148=CARTESIAN_POINT('Ctrl Pts',(-38.9882256145735,1.19874865257652,-0.907231612648293));
#149=CARTESIAN_POINT('Ctrl Pts',(-38.930701233092,1.30902387007332,-0.739303241328647));
#150=CARTESIAN_POINT('Ctrl Pts',(-38.8902160998366,1.35486295819944,-0.65110400540094));
#151=CARTESIAN_POINT('Ctrl Pts',(-38.7527461041528,1.46459464749707,-0.378579849052965));
#152=CARTESIAN_POINT('Ctrl Pts',(-38.6411487846459,1.5,-0.185089733640828));
#153=CARTESIAN_POINT('Ctrl Pts',(-38.4541223489104,1.5,0.177567980486912));
#154=CARTESIAN_POINT('Ctrl Pts',(-38.3630373584619,1.46660151397067,0.372832469001255));
#155=CARTESIAN_POINT('Ctrl Pts',(-38.2356294527078,1.3178660886072,0.743742727837072));
#156=CARTESIAN_POINT('Ctrl Pts',(-38.2,1.20193318601509,0.919387157544548));
#157=CARTESIAN_POINT('Ctrl Pts',(-38.2,1.06066017177982,1.06066017177981));
#158=CARTESIAN_POINT('',(-38.5456960427751,6.06204539690958E-017,-1.50000000000001));
#159=CARTESIAN_POINT('Ctrl Pts',(-38.5456960427751,-2.42861286636753E-016,
-1.50000000000001));
#160=CARTESIAN_POINT('Ctrl Pts',(-38.6411487846459,0.185089733640821,-1.50000000000001));
#161=CARTESIAN_POINT('Ctrl Pts',(-38.7527461041528,0.378579849052958,-1.46459464749708));
#162=CARTESIAN_POINT('Ctrl Pts',(-38.8902160998366,0.651104005400932,-1.35486295819945));
#163=CARTESIAN_POINT('Ctrl Pts',(-38.930701233092,0.739303241328639,-1.30902387007332));
#164=CARTESIAN_POINT('Ctrl Pts',(-38.9882256145735,0.907231612648285,-1.19874865257653));
#165=CARTESIAN_POINT('Ctrl Pts',(-39.0050125628934,0.98703151276219,-1.13428883079746));
#166=CARTESIAN_POINT('Ctrl Pts',(-39.0050125628934,1.06066017177982,-1.06066017177983));
#167=CARTESIAN_POINT('',(-38.2,-1.06066017177982,-1.06066017177983));
#168=CARTESIAN_POINT('Ctrl Pts',(-38.2,-1.06066017177982,-1.06066017177983));
#169=CARTESIAN_POINT('Ctrl Pts',(-38.2,-0.919387157544555,-1.20193318601509));
#170=CARTESIAN_POINT('Ctrl Pts',(-38.2356294527078,-0.743742727837079,-1.31786608860721));
#171=CARTESIAN_POINT('Ctrl Pts',(-38.3630373584619,-0.372832469001263,-1.46660151397067));
#172=CARTESIAN_POINT('Ctrl Pts',(-38.4541223489104,-0.177567980486919,-1.50000000000001));
#173=CARTESIAN_POINT('Ctrl Pts',(-38.5456960427751,-2.42861286636753E-016,
-1.50000000000001));
#174=CARTESIAN_POINT('',(-38.5456960427751,-1.89392408833631E-015,1.49999999999999));
#175=CARTESIAN_POINT('Ctrl Pts',(-38.5456960427751,3.81639164714898E-016,
1.49999999999999));
#176=CARTESIAN_POINT('Ctrl Pts',(-38.6411487846459,-0.185089733640821,1.49999999999999));
#177=CARTESIAN_POINT('Ctrl Pts',(-38.7527461041528,-0.378579849052957,1.46459464749706));
#178=CARTESIAN_POINT('Ctrl Pts',(-38.8902160998366,-0.651104005400932,1.35486295819944));
#179=CARTESIAN_POINT('Ctrl Pts',(-38.930701233092,-0.73930324132864,1.30902387007331));
#180=CARTESIAN_POINT('Ctrl Pts',(-38.9882256145735,-0.907231612648286,1.19874865257652));
#181=CARTESIAN_POINT('Ctrl Pts',(-39.0050125628934,-0.987031512762191,1.13428883079745));
#182=CARTESIAN_POINT('Ctrl Pts',(-39.0050125628934,-1.13428883079745,0.987031512762184));
#183=CARTESIAN_POINT('Ctrl Pts',(-38.9882256145735,-1.19874865257652,0.907231612648279));
#184=CARTESIAN_POINT('Ctrl Pts',(-38.930701233092,-1.30902387007332,0.739303241328633));
#185=CARTESIAN_POINT('Ctrl Pts',(-38.8902160998366,-1.35486295819944,0.651104005400925));
#186=CARTESIAN_POINT('Ctrl Pts',(-38.7527461041528,-1.46459464749707,0.37857984905295));
#187=CARTESIAN_POINT('Ctrl Pts',(-38.6411487846459,-1.5,0.185089733640813));
#188=CARTESIAN_POINT('Ctrl Pts',(-38.4541223489104,-1.5,-0.177567980486926));
#189=CARTESIAN_POINT('Ctrl Pts',(-38.3630373584619,-1.46660151397067,-0.37283246900127));
#190=CARTESIAN_POINT('Ctrl Pts',(-38.2356294527078,-1.3178660886072,-0.743742727837085));
#191=CARTESIAN_POINT('Ctrl Pts',(-38.2,-1.20193318601509,-0.919387157544562));
#192=CARTESIAN_POINT('Ctrl Pts',(-38.2,-1.06066017177982,-1.06066017177983));
#193=CARTESIAN_POINT('Ctrl Pts',(-38.2,1.06066017177982,1.06066017177981));
#194=CARTESIAN_POINT('Ctrl Pts',(-38.2,0.919387157544555,1.20193318601508));
#195=CARTESIAN_POINT('Ctrl Pts',(-38.2356294527078,0.743742727837079,1.31786608860719));
#196=CARTESIAN_POINT('Ctrl Pts',(-38.3630373584619,0.372832469001263,1.46660151397066));
#197=CARTESIAN_POINT('Ctrl Pts',(-38.4541223489104,0.17756798048692,1.49999999999999));
#198=CARTESIAN_POINT('Ctrl Pts',(-38.5456960427751,3.81639164714898E-016,
1.49999999999999));
#199=CARTESIAN_POINT('Origin',(-32.5,0.,-5.96995597488409E-015));
#200=CARTESIAN_POINT('',(-25.,1.83690953073357E-016,-1.5));
#201=CARTESIAN_POINT('Origin',(-25.,0.,-4.59227382683391E-015));
#202=CARTESIAN_POINT('Origin',(-25.,5.3576527979729E-017,0.875));
#203=CARTESIAN_POINT('',(-25.,-3.21459167878374E-016,-1.75));
#204=CARTESIAN_POINT('Origin',(-25.,0.,0.));
#205=CARTESIAN_POINT('Origin',(-17.5,0.,0.));
#206=CARTESIAN_POINT('',(-10.,-3.21459167878374E-016,-1.75));
#207=CARTESIAN_POINT('Origin',(-10.,0.,0.));
#208=CARTESIAN_POINT('Origin',(0.,3.82689485569493E-017,0.625));
#209=CARTESIAN_POINT('',(0.,-2.29613691341696E-016,-1.25));
#210=CARTESIAN_POINT('Origin',(0.,0.,0.));
#211=CARTESIAN_POINT('Origin',(-10.,9.18454765366783E-017,1.5));
#212=CARTESIAN_POINT('',(-10.,-2.29613691341696E-016,-1.25));
#213=CARTESIAN_POINT('Origin',(-10.,0.,0.));
#214=CARTESIAN_POINT('Origin',(-5.,0.,0.));
#215=UNCERTAINTY_MEASURE_WITH_UNIT(LENGTH_MEASURE(0.01),#217,
'DISTANCE_ACCURACY_VALUE',
'Maximum model space distance between geometric entities at asserted c
onnectivities');
#216=(
GEOMETRIC_REPRESENTATION_CONTEXT(3)
GLOBAL_UNCERTAINTY_ASSIGNED_CONTEXT((#215))
GLOBAL_UNIT_ASSIGNED_CONTEXT((#217,#219,#218))
REPRESENTATION_CONTEXT('','3D')
);
#217=(
LENGTH_UNIT()
NAMED_UNIT(*)
SI_UNIT(.MILLI.,.METRE.)
);
#218=(
NAMED_UNIT(*)
SI_UNIT($,.STERADIAN.)
SOLID_ANGLE_UNIT()
);
#219=(
NAMED_UNIT(*)
PLANE_ANGLE_UNIT()
SI_UNIT($,.RADIAN.)
);
#220=SHAPE_DEFINITION_REPRESENTATION(#221,#222);
#221=PRODUCT_DEFINITION_SHAPE('',$,#224);
#222=SHAPE_REPRESENTATION('',(#103),#216);
#223=PRODUCT_DEFINITION_CONTEXT('3D Mechanical Parts',#227,'design');
#224=PRODUCT_DEFINITION('LS06A521','LS06A521',#225,#223);
#225=PRODUCT_DEFINITION_FORMATION('',$,#229);
#226=APPLICATION_PROTOCOL_DEFINITION('international standard',
'automotive_design',2009,#227);
#227=APPLICATION_CONTEXT(
'Core Data for Automotive Mechanical Design Process');
#228=PRODUCT_CONTEXT('3D Mechanical Parts',#227,'mechanical');
#229=PRODUCT('LS06A521','LS06A521',$,(#228));
#230=PRESENTATION_STYLE_ASSIGNMENT((#231));
#231=SURFACE_STYLE_USAGE(.BOTH.,#232);
#232=SURFACE_SIDE_STYLE($,(#233));
#233=SURFACE_STYLE_FILL_AREA(#234);
#234=FILL_AREA_STYLE($,(#235));
#235=FILL_AREA_STYLE_COLOUR($,#236);
#236=COLOUR_RGB('',0.749019607843137,0.749019607843137,0.749019607843137);
ENDSEC;
END-ISO-10303-21;
