ISO-10303-21;
HEADER;
/* Generated by software containing ST-Developer
 * from STEP Tools, Inc. (www.steptools.com) 
 */

FILE_DESCRIPTION(
/* description */ (''),
/* implementation_level */ '2;1');

FILE_NAME(
/* name */ 
'C:\\Users\\mitarbeiter\\Desktop\\3D\\Imported Components\\LT030102\\L
T030102.stp',
/* time_stamp */ '2016-10-06T13:57:50+02:00',
/* author */ ('mitarbeiter'),
/* organization */ (''),
/* preprocessor_version */ 'ST-DEVELOPER v15.2',
/* originating_system */ 'Autodesk Inventor 2014',
/* authorisation */ '');

FILE_SCHEMA (('AUTOMOTIVE_DESIGN { 1 0 10303 214 3 1 1 }'));
ENDSEC;

DATA;
#10=SHAPE_REPRESENTATION_RELATIONSHIP('SRR','None',#262,#11);
#11=ADVANCED_BREP_SHAPE_REPRESENTATION($,(#116),#253);
#12=STYLED_ITEM($,(#270),#116);
#13=(
BOUNDED_SURFACE()
B_SPLINE_SURFACE(2,2,((#191,#192,#193,#194,#195),(#196,#197,#198,#199,#200),
(#201,#202,#203,#204,#205),(#206,#207,#208,#209,#210),(#211,#212,#213,#214,
#215),(#216,#217,#218,#219,#220),(#221,#222,#223,#224,#225),(#226,#227,
#228,#229,#230),(#231,#232,#233,#234,#235)),.UNSPECIFIED.,.T.,.F.,.F.)
B_SPLINE_SURFACE_WITH_KNOTS((3,2,2,2,3),(3,2,3),(-3.14159265358979,-1.5707963267949,
0.,1.5707963267949,3.14159265358979),(0.,0.786811711686195,1.57362342337239),
 .UNSPECIFIED.)
GEOMETRIC_REPRESENTATION_ITEM()
RATIONAL_B_SPLINE_SURFACE(((1.,0.92360883102571,1.,0.92360883102571,1.),
(0.707106781186548,0.65309006758206,0.707106781186548,0.65309006758206,
0.707106781186548),(1.,0.92360883102571,1.,0.92360883102571,1.),(0.707106781186548,
0.65309006758206,0.707106781186548,0.65309006758206,0.707106781186548),
(1.,0.92360883102571,1.,0.92360883102571,1.),(0.707106781186548,0.65309006758206,
0.707106781186548,0.65309006758206,0.707106781186548),(1.,0.92360883102571,
1.,0.92360883102571,1.),(0.707106781186548,0.65309006758206,0.707106781186548,
0.65309006758206,0.707106781186548),(1.,0.92360883102571,1.,0.92360883102571,
1.)))
REPRESENTATION_ITEM($)
SURFACE()
);
#14=PLANE($,#121);
#15=PLANE($,#131);
#16=PLANE($,#135);
#17=PLANE($,#136);
#18=FACE_BOUND($,#34,.T.);
#19=FACE_BOUND($,#37,.T.);
#20=FACE_BOUND($,#40,.T.);
#21=FACE_BOUND($,#43,.T.);
#22=FACE_BOUND($,#45,.T.);
#23=FACE_BOUND($,#47,.T.);
#24=FACE_OUTER_BOUND($,#33,.T.);
#25=FACE_OUTER_BOUND($,#35,.T.);
#26=FACE_OUTER_BOUND($,#36,.T.);
#27=FACE_OUTER_BOUND($,#38,.T.);
#28=FACE_OUTER_BOUND($,#39,.T.);
#29=FACE_OUTER_BOUND($,#41,.T.);
#30=FACE_OUTER_BOUND($,#42,.T.);
#31=FACE_OUTER_BOUND($,#44,.T.);
#32=FACE_OUTER_BOUND($,#46,.T.);
#33=EDGE_LOOP($,(#80));
#34=EDGE_LOOP($,(#81));
#35=EDGE_LOOP($,(#82));
#36=EDGE_LOOP($,(#83,#84));
#37=EDGE_LOOP($,(#85));
#38=EDGE_LOOP($,(#86,#87,#88,#89,#90,#91));
#39=EDGE_LOOP($,(#92));
#40=EDGE_LOOP($,(#93,#94));
#41=EDGE_LOOP($,(#95));
#42=EDGE_LOOP($,(#96));
#43=EDGE_LOOP($,(#97));
#44=EDGE_LOOP($,(#98));
#45=EDGE_LOOP($,(#99));
#46=EDGE_LOOP($,(#100));
#47=EDGE_LOOP($,(#101));
#48=CIRCLE($,#119,2.1);
#49=CIRCLE($,#120,2.1);
#50=CIRCLE($,#123,0.75);
#51=CIRCLE($,#124,0.75);
#52=CIRCLE($,#125,0.75);
#53=CIRCLE($,#126,0.75);
#54=CIRCLE($,#127,0.75);
#55=CIRCLE($,#128,1.25000017375829);
#56=CIRCLE($,#130,0.75);
#57=CIRCLE($,#133,3.);
#58=CIRCLE($,#134,3.);
#59=VERTEX_POINT($,#179);
#60=VERTEX_POINT($,#181);
#61=VERTEX_POINT($,#185);
#62=VERTEX_POINT($,#186);
#63=VERTEX_POINT($,#189);
#64=VERTEX_POINT($,#236);
#65=VERTEX_POINT($,#237);
#66=VERTEX_POINT($,#242);
#67=VERTEX_POINT($,#246);
#68=VERTEX_POINT($,#248);
#69=EDGE_CURVE($,#59,#59,#48,.T.);
#70=EDGE_CURVE($,#60,#60,#49,.T.);
#71=EDGE_CURVE($,#61,#62,#50,.T.);
#72=EDGE_CURVE($,#62,#61,#51,.T.);
#73=EDGE_CURVE($,#63,#63,#52,.T.);
#74=EDGE_CURVE($,#64,#65,#53,.T.);
#75=EDGE_CURVE($,#65,#64,#54,.T.);
#76=EDGE_CURVE($,#64,#62,#55,.T.);
#77=EDGE_CURVE($,#66,#66,#56,.T.);
#78=EDGE_CURVE($,#67,#67,#57,.T.);
#79=EDGE_CURVE($,#68,#68,#58,.T.);
#80=ORIENTED_EDGE($,*,*,#69,.F.);
#81=ORIENTED_EDGE($,*,*,#70,.F.);
#82=ORIENTED_EDGE($,*,*,#69,.T.);
#83=ORIENTED_EDGE($,*,*,#71,.T.);
#84=ORIENTED_EDGE($,*,*,#72,.T.);
#85=ORIENTED_EDGE($,*,*,#73,.F.);
#86=ORIENTED_EDGE($,*,*,#74,.T.);
#87=ORIENTED_EDGE($,*,*,#75,.T.);
#88=ORIENTED_EDGE($,*,*,#76,.T.);
#89=ORIENTED_EDGE($,*,*,#71,.F.);
#90=ORIENTED_EDGE($,*,*,#72,.F.);
#91=ORIENTED_EDGE($,*,*,#76,.F.);
#92=ORIENTED_EDGE($,*,*,#77,.F.);
#93=ORIENTED_EDGE($,*,*,#74,.F.);
#94=ORIENTED_EDGE($,*,*,#75,.F.);
#95=ORIENTED_EDGE($,*,*,#73,.T.);
#96=ORIENTED_EDGE($,*,*,#78,.F.);
#97=ORIENTED_EDGE($,*,*,#79,.F.);
#98=ORIENTED_EDGE($,*,*,#79,.T.);
#99=ORIENTED_EDGE($,*,*,#70,.T.);
#100=ORIENTED_EDGE($,*,*,#78,.T.);
#101=ORIENTED_EDGE($,*,*,#77,.T.);
#102=CYLINDRICAL_SURFACE($,#118,2.1);
#103=CYLINDRICAL_SURFACE($,#122,0.750000093890527);
#104=CYLINDRICAL_SURFACE($,#129,0.750000093890526);
#105=CYLINDRICAL_SURFACE($,#132,3.);
#106=ADVANCED_FACE($,(#24,#18),#102,.T.);
#107=ADVANCED_FACE($,(#25),#14,.F.);
#108=ADVANCED_FACE($,(#26,#19),#103,.T.);
#109=ADVANCED_FACE($,(#27),#13,.T.);
#110=ADVANCED_FACE($,(#28,#20),#104,.T.);
#111=ADVANCED_FACE($,(#29),#15,.T.);
#112=ADVANCED_FACE($,(#30,#21),#105,.T.);
#113=ADVANCED_FACE($,(#31,#22),#16,.F.);
#114=ADVANCED_FACE($,(#32,#23),#17,.T.);
#115=CLOSED_SHELL($,(#106,#107,#108,#109,#110,#111,#112,#113,#114));
#116=MANIFOLD_SOLID_BREP('Volumenk\X\F6rper1',#115);
#117=AXIS2_PLACEMENT_3D('placement',#177,#137,#138);
#118=AXIS2_PLACEMENT_3D($,#178,#139,#140);
#119=AXIS2_PLACEMENT_3D($,#180,#141,#142);
#120=AXIS2_PLACEMENT_3D($,#182,#143,#144);
#121=AXIS2_PLACEMENT_3D($,#183,#145,#146);
#122=AXIS2_PLACEMENT_3D($,#184,#147,#148);
#123=AXIS2_PLACEMENT_3D($,#187,#149,#150);
#124=AXIS2_PLACEMENT_3D($,#188,#151,#152);
#125=AXIS2_PLACEMENT_3D($,#190,#153,#154);
#126=AXIS2_PLACEMENT_3D($,#238,#155,#156);
#127=AXIS2_PLACEMENT_3D($,#239,#157,#158);
#128=AXIS2_PLACEMENT_3D($,#240,#159,#160);
#129=AXIS2_PLACEMENT_3D($,#241,#161,#162);
#130=AXIS2_PLACEMENT_3D($,#243,#163,#164);
#131=AXIS2_PLACEMENT_3D($,#244,#165,#166);
#132=AXIS2_PLACEMENT_3D($,#245,#167,#168);
#133=AXIS2_PLACEMENT_3D($,#247,#169,#170);
#134=AXIS2_PLACEMENT_3D($,#249,#171,#172);
#135=AXIS2_PLACEMENT_3D($,#250,#173,#174);
#136=AXIS2_PLACEMENT_3D($,#251,#175,#176);
#137=DIRECTION('axis',(0.,0.,1.));
#138=DIRECTION('refdir',(1.,0.,0.));
#139=DIRECTION('center_axis',(0.,0.,-1.));
#140=DIRECTION('ref_axis',(1.,0.,0.));
#141=DIRECTION('center_axis',(0.,0.,-1.));
#142=DIRECTION('ref_axis',(1.,0.,0.));
#143=DIRECTION('center_axis',(0.,0.,1.));
#144=DIRECTION('ref_axis',(1.,0.,0.));
#145=DIRECTION('center_axis',(0.,0.,1.));
#146=DIRECTION('ref_axis',(1.,0.,0.));
#147=DIRECTION('center_axis',(0.99999738034541,-2.26127344498399E-032,-0.00228895223132178));
#148=DIRECTION('ref_axis',(0.,1.,0.));
#149=DIRECTION('center_axis',(0.999996003765133,0.,-0.00282709281157843));
#150=DIRECTION('ref_axis',(0.00282709281157843,0.,0.999996003765132));
#151=DIRECTION('center_axis',(0.999996003765133,0.,-0.00282709281157843));
#152=DIRECTION('ref_axis',(0.00282709281157843,0.,0.999996003765132));
#153=DIRECTION('center_axis',(0.999996003765133,0.,-0.00282709281157843));
#154=DIRECTION('ref_axis',(0.00282709281157843,0.,0.999996003765132));
#155=DIRECTION('center_axis',(0.,0.,1.));
#156=DIRECTION('ref_axis',(-1.,0.,0.));
#157=DIRECTION('center_axis',(0.,0.,1.));
#158=DIRECTION('ref_axis',(-1.,0.,0.));
#159=DIRECTION('center_axis',(8.66222325204995E-033,1.,-2.09871705175785E-032));
#160=DIRECTION('ref_axis',(-0.999999629315672,8.64414950815086E-033,-0.000861027594622743));
#161=DIRECTION('center_axis',(-0.00053814232144425,-2.65639560538261E-033,
0.99999985520141));
#162=DIRECTION('ref_axis',(6.54135228843453E-017,1.,0.));
#163=DIRECTION('center_axis',(0.,0.,-1.));
#164=DIRECTION('ref_axis',(0.,-1.,0.));
#165=DIRECTION('center_axis',(0.999996003765133,0.,-0.00282709281157843));
#166=DIRECTION('ref_axis',(-0.00282709281157878,0.,-0.999996003765133));
#167=DIRECTION('center_axis',(0.,0.,1.));
#168=DIRECTION('ref_axis',(-1.,0.,0.));
#169=DIRECTION('center_axis',(0.,0.,1.));
#170=DIRECTION('ref_axis',(-1.,0.,0.));
#171=DIRECTION('center_axis',(0.,0.,-1.));
#172=DIRECTION('ref_axis',(-1.,0.,0.));
#173=DIRECTION('center_axis',(0.,0.,1.));
#174=DIRECTION('ref_axis',(1.,0.,0.));
#175=DIRECTION('center_axis',(0.,0.,1.));
#176=DIRECTION('ref_axis',(1.,0.,0.));
#177=CARTESIAN_POINT('',(0.,0.,0.));
#178=CARTESIAN_POINT('Origin',(0.,0.,0.));
#179=CARTESIAN_POINT('',(-2.1,2.57175827820944E-016,-15.));
#180=CARTESIAN_POINT('Origin',(0.,0.,-15.));
#181=CARTESIAN_POINT('',(-2.1,2.57175827820944E-016,0.));
#182=CARTESIAN_POINT('Origin',(0.,0.,0.));
#183=CARTESIAN_POINT('Origin',(1.31572492062971E-016,0.,-15.));
#184=CARTESIAN_POINT('Origin',(5.99972105772515,-9.38905266034684E-008,
19.9862600062022));
#185=CARTESIAN_POINT('',(2.00296623497096,0.75,19.9954084110374));
#186=CARTESIAN_POINT('',(2.00084591536228,9.18485099360515E-017,19.2454114082136));
#187=CARTESIAN_POINT('Origin',(2.00296623497096,0.,19.9954084110374));
#188=CARTESIAN_POINT('Origin',(2.00296623497096,0.,19.9954084110374));
#189=CARTESIAN_POINT('',(9.9951627722382,9.18485099360515E-017,19.22711275087));
#190=CARTESIAN_POINT('Origin',(9.99728309184688,0.,19.9771097536939));
#191=CARTESIAN_POINT('Ctrl Pts',(0.748388620105507,9.18485099360515E-017,
17.9943373657037));
#192=CARTESIAN_POINT('Ctrl Pts',(0.747941916944364,9.18485099360515E-017,
18.5131395485225));
#193=CARTESIAN_POINT('Ctrl Pts',(1.11499322993597,9.18485099360515E-017,
18.8797854786409));
#194=CARTESIAN_POINT('Ctrl Pts',(1.48204454292759,9.18485099360515E-017,
19.2464314087593));
#195=CARTESIAN_POINT('Ctrl Pts',(2.00084591536228,9.18485099360515E-017,
19.2454114082136));
#196=CARTESIAN_POINT('Ctrl Pts',(0.748388620105507,0.75,17.9943373657037));
#197=CARTESIAN_POINT('Ctrl Pts',(0.747941916944364,0.75,18.5131395485225));
#198=CARTESIAN_POINT('Ctrl Pts',(1.11499322993597,0.75,18.8797854786409));
#199=CARTESIAN_POINT('Ctrl Pts',(1.48204454292759,0.75,19.2464314087593));
#200=CARTESIAN_POINT('Ctrl Pts',(2.00084591536228,0.75,19.2454114082136));
#201=CARTESIAN_POINT('Ctrl Pts',(-0.00161137989449278,0.75,17.9943373657037));
#202=CARTESIAN_POINT('Ctrl Pts',(-0.00205808305563659,0.75,18.8244209303307));
#203=CARTESIAN_POINT('Ctrl Pts',(0.585413320812957,0.75,19.4108646816354));
#204=CARTESIAN_POINT('Ctrl Pts',(1.17288472468155,0.75,19.99730843294));
#205=CARTESIAN_POINT('Ctrl Pts',(2.00296623497096,0.75,19.9954084110374));
#206=CARTESIAN_POINT('Ctrl Pts',(-0.751611379894493,0.75,17.9943373657037));
#207=CARTESIAN_POINT('Ctrl Pts',(-0.752058083055637,0.75,19.135702312139));
#208=CARTESIAN_POINT('Ctrl Pts',(0.0558334116899398,0.75,19.9419438846299));
#209=CARTESIAN_POINT('Ctrl Pts',(0.863724906435516,0.75,20.7481854571207));
#210=CARTESIAN_POINT('Ctrl Pts',(2.00508655457965,0.75,20.7454054138613));
#211=CARTESIAN_POINT('Ctrl Pts',(-0.751611379894493,0.,17.9943373657037));
#212=CARTESIAN_POINT('Ctrl Pts',(-0.752058083055637,0.,19.135702312139));
#213=CARTESIAN_POINT('Ctrl Pts',(0.0558334116899398,0.,19.9419438846299));
#214=CARTESIAN_POINT('Ctrl Pts',(0.863724906435516,0.,20.7481854571207));
#215=CARTESIAN_POINT('Ctrl Pts',(2.00508655457965,0.,20.7454054138613));
#216=CARTESIAN_POINT('Ctrl Pts',(-0.751611379894493,-0.75,17.9943373657037));
#217=CARTESIAN_POINT('Ctrl Pts',(-0.752058083055637,-0.75,19.135702312139));
#218=CARTESIAN_POINT('Ctrl Pts',(0.0558334116899398,-0.75,19.9419438846299));
#219=CARTESIAN_POINT('Ctrl Pts',(0.863724906435516,-0.75,20.7481854571207));
#220=CARTESIAN_POINT('Ctrl Pts',(2.00508655457965,-0.75,20.7454054138613));
#221=CARTESIAN_POINT('Ctrl Pts',(-0.00161137989449278,-0.75,17.9943373657037));
#222=CARTESIAN_POINT('Ctrl Pts',(-0.00205808305563659,-0.75,18.8244209303307));
#223=CARTESIAN_POINT('Ctrl Pts',(0.585413320812957,-0.75,19.4108646816354));
#224=CARTESIAN_POINT('Ctrl Pts',(1.17288472468155,-0.75,19.99730843294));
#225=CARTESIAN_POINT('Ctrl Pts',(2.00296623497096,-0.75,19.9954084110374));
#226=CARTESIAN_POINT('Ctrl Pts',(0.748388620105507,-0.75,17.9943373657037));
#227=CARTESIAN_POINT('Ctrl Pts',(0.747941916944364,-0.75,18.5131395485225));
#228=CARTESIAN_POINT('Ctrl Pts',(1.11499322993597,-0.75,18.8797854786409));
#229=CARTESIAN_POINT('Ctrl Pts',(1.48204454292759,-0.75,19.2464314087593));
#230=CARTESIAN_POINT('Ctrl Pts',(2.00084591536228,-0.75,19.2454114082136));
#231=CARTESIAN_POINT('Ctrl Pts',(0.748388620105507,-9.18485099360515E-017,
17.9943373657037));
#232=CARTESIAN_POINT('Ctrl Pts',(0.747941916944364,-9.18485099360515E-017,
18.5131395485225));
#233=CARTESIAN_POINT('Ctrl Pts',(1.11499322993597,-9.18485099360515E-017,
18.8797854786409));
#234=CARTESIAN_POINT('Ctrl Pts',(1.48204454292759,-9.18485099360515E-017,
19.2464314087593));
#235=CARTESIAN_POINT('Ctrl Pts',(2.00084591536228,-9.18485099360515E-017,
19.2454114082136));
#236=CARTESIAN_POINT('',(0.748388620105507,9.18485099360515E-017,17.9943373657037));
#237=CARTESIAN_POINT('',(-0.00161137989449273,0.75,17.9943373657037));
#238=CARTESIAN_POINT('Origin',(-0.00161137989449273,0.,17.9943373657037));
#239=CARTESIAN_POINT('Origin',(-0.00161137989449273,0.,17.9943373657037));
#240=CARTESIAN_POINT('Origin',(1.99838833050833,9.18485099360515E-017,17.9954136503466));
#241=CARTESIAN_POINT('Origin',(-0.000805472749377813,-9.38905263259127E-008,
16.4967650761693));
#242=CARTESIAN_POINT('',(0.75,9.18485099360515E-017,15.));
#243=CARTESIAN_POINT('Origin',(0.,0.,15.));
#244=CARTESIAN_POINT('Origin',(9.99728309184688,-1.92747052886312E-017,
19.9771097536939));
#245=CARTESIAN_POINT('Origin',(0.,0.,0.));
#246=CARTESIAN_POINT('',(3.,3.67394039744206E-016,15.));
#247=CARTESIAN_POINT('Origin',(0.,0.,15.));
#248=CARTESIAN_POINT('',(3.,3.67394039744206E-016,0.));
#249=CARTESIAN_POINT('Origin',(0.,0.,0.));
#250=CARTESIAN_POINT('Origin',(-1.84813812287733E-016,-7.70988211545247E-017,
0.));
#251=CARTESIAN_POINT('Origin',(-1.84813812287733E-016,-7.70988211545247E-017,
15.));
#252=UNCERTAINTY_MEASURE_WITH_UNIT(LENGTH_MEASURE(0.01),#254,
'DISTANCE_ACCURACY_VALUE',
'Maximum model space distance between geometric entities at asserted c
onnectivities');
#253=(
GEOMETRIC_REPRESENTATION_CONTEXT(3)
GLOBAL_UNCERTAINTY_ASSIGNED_CONTEXT((#252))
GLOBAL_UNIT_ASSIGNED_CONTEXT((#254,#257,#255))
REPRESENTATION_CONTEXT('','3D')
);
#254=(
LENGTH_UNIT()
NAMED_UNIT(*)
SI_UNIT(.MILLI.,.METRE.)
);
#255=(
NAMED_UNIT(*)
SI_UNIT($,.STERADIAN.)
SOLID_ANGLE_UNIT()
);
#256=DIMENSIONAL_EXPONENTS(0.,0.,0.,0.,0.,0.,0.);
#257=(
CONVERSION_BASED_UNIT('degree',#259)
NAMED_UNIT(#256)
PLANE_ANGLE_UNIT()
);
#258=(
NAMED_UNIT(*)
PLANE_ANGLE_UNIT()
SI_UNIT($,.RADIAN.)
);
#259=PLANE_ANGLE_MEASURE_WITH_UNIT(PLANE_ANGLE_MEASURE(0.01745329252),#258);
#260=SHAPE_DEFINITION_REPRESENTATION(#261,#262);
#261=PRODUCT_DEFINITION_SHAPE('',$,#264);
#262=SHAPE_REPRESENTATION('',(#117),#253);
#263=PRODUCT_DEFINITION_CONTEXT('3D Mechanical Parts',#267,'design');
#264=PRODUCT_DEFINITION('LT030102','LT030102',#265,#263);
#265=PRODUCT_DEFINITION_FORMATION('',$,#269);
#266=APPLICATION_PROTOCOL_DEFINITION('international standard',
'automotive_design',2009,#267);
#267=APPLICATION_CONTEXT(
'Core Data for Automotive Mechanical Design Process');
#268=PRODUCT_CONTEXT('3D Mechanical Parts',#267,'mechanical');
#269=PRODUCT('LT030102','LT030102',$,(#268));
#270=PRESENTATION_STYLE_ASSIGNMENT((#271));
#271=SURFACE_STYLE_USAGE(.BOTH.,#272);
#272=SURFACE_SIDE_STYLE($,(#273));
#273=SURFACE_STYLE_FILL_AREA(#274);
#274=FILL_AREA_STYLE($,(#275));
#275=FILL_AREA_STYLE_COLOUR($,#276);
#276=COLOUR_RGB('',0.749019607843137,0.749019607843137,0.749019607843137);
ENDSEC;
END-ISO-10303-21;
