ISO-10303-21;
HEADER;
/* Generated by software containing ST-Developer
 * from STEP Tools, Inc. (www.steptools.com) 
 */

FILE_DESCRIPTION(
/* description */ (''),
/* implementation_level */ '2;1');

FILE_NAME(
/* name */ 
'C:\\Users\\mitarbeiter\\Desktop\\3D\\Imported Components\\LT207004\\L
T207004.stp',
/* time_stamp */ '2016-10-06T14:07:44+02:00',
/* author */ ('mitarbeiter'),
/* organization */ (''),
/* preprocessor_version */ 'ST-DEVELOPER v15.2',
/* originating_system */ 'Autodesk Inventor 2014',
/* authorisation */ '');

FILE_SCHEMA (('AUTOMOTIVE_DESIGN { 1 0 10303 214 3 1 1 }'));
ENDSEC;

DATA;
#10=ITEM_DEFINED_TRANSFORMATION($,$,#331,#387);
#11=(
REPRESENTATION_RELATIONSHIP($,$,#607,#608)
REPRESENTATION_RELATIONSHIP_WITH_TRANSFORMATION(#10)
SHAPE_REPRESENTATION_RELATIONSHIP()
);
#12=CONTEXT_DEPENDENT_SHAPE_REPRESENTATION(#11,#606);
#13=NEXT_ASSEMBLY_USAGE_OCCURRENCE('LT207004',$,$,#611,#610,$);
#14=SHAPE_REPRESENTATION_RELATIONSHIP('SRR','None',#607,#15);
#15=ADVANCED_BREP_SHAPE_REPRESENTATION($,(#330),#597);
#16=STYLED_ITEM($,(#619),#330);
#17=PLANE($,#375);
#18=PLANE($,#376);
#19=PLANE($,#377);
#20=PLANE($,#378);
#21=PLANE($,#379);
#22=PLANE($,#380);
#23=PLANE($,#381);
#24=PLANE($,#382);
#25=PLANE($,#383);
#26=PLANE($,#384);
#27=PLANE($,#385);
#28=LINE($,#568,#32);
#29=LINE($,#571,#33);
#30=LINE($,#581,#34);
#31=LINE($,#584,#35);
#32=VECTOR($,#464,15.);
#33=VECTOR($,#467,15.);
#34=VECTOR($,#480,3.3166247903554);
#35=VECTOR($,#485,3.3166247903554);
#36=CYLINDRICAL_SURFACE($,#344,0.5);
#37=CYLINDRICAL_SURFACE($,#347,0.5);
#38=CYLINDRICAL_SURFACE($,#350,1.1);
#39=CYLINDRICAL_SURFACE($,#352,1.1);
#40=CYLINDRICAL_SURFACE($,#353,1.1);
#41=CYLINDRICAL_SURFACE($,#355,1.1);
#42=CYLINDRICAL_SURFACE($,#358,1.59999999999997);
#43=CYLINDRICAL_SURFACE($,#361,1.1);
#44=CYLINDRICAL_SURFACE($,#363,1.1);
#45=CYLINDRICAL_SURFACE($,#364,1.75);
#46=CYLINDRICAL_SURFACE($,#367,3.);
#47=CYLINDRICAL_SURFACE($,#370,1.25);
#48=CYLINDRICAL_SURFACE($,#373,1.1);
#49=FACE_BOUND($,#102,.T.);
#50=FACE_BOUND($,#104,.T.);
#51=FACE_BOUND($,#106,.T.);
#52=FACE_BOUND($,#108,.T.);
#53=FACE_BOUND($,#110,.T.);
#54=FACE_BOUND($,#112,.T.);
#55=FACE_BOUND($,#114,.T.);
#56=FACE_BOUND($,#116,.T.);
#57=FACE_BOUND($,#118,.T.);
#58=FACE_BOUND($,#120,.T.);
#59=FACE_BOUND($,#122,.T.);
#60=FACE_BOUND($,#124,.T.);
#61=FACE_BOUND($,#126,.T.);
#62=FACE_BOUND($,#128,.T.);
#63=FACE_BOUND($,#131,.T.);
#64=FACE_BOUND($,#133,.T.);
#65=FACE_BOUND($,#135,.T.);
#66=FACE_BOUND($,#136,.T.);
#67=FACE_BOUND($,#138,.T.);
#68=FACE_BOUND($,#139,.T.);
#69=FACE_BOUND($,#141,.T.);
#70=FACE_BOUND($,#143,.T.);
#71=FACE_BOUND($,#146,.T.);
#72=FACE_BOUND($,#148,.T.);
#73=FACE_OUTER_BOUND($,#101,.T.);
#74=FACE_OUTER_BOUND($,#103,.T.);
#75=FACE_OUTER_BOUND($,#105,.T.);
#76=FACE_OUTER_BOUND($,#107,.T.);
#77=FACE_OUTER_BOUND($,#109,.T.);
#78=FACE_OUTER_BOUND($,#111,.T.);
#79=FACE_OUTER_BOUND($,#113,.T.);
#80=FACE_OUTER_BOUND($,#115,.T.);
#81=FACE_OUTER_BOUND($,#117,.T.);
#82=FACE_OUTER_BOUND($,#119,.T.);
#83=FACE_OUTER_BOUND($,#121,.T.);
#84=FACE_OUTER_BOUND($,#123,.T.);
#85=FACE_OUTER_BOUND($,#125,.T.);
#86=FACE_OUTER_BOUND($,#127,.T.);
#87=FACE_OUTER_BOUND($,#129,.T.);
#88=FACE_OUTER_BOUND($,#130,.T.);
#89=FACE_OUTER_BOUND($,#132,.T.);
#90=FACE_OUTER_BOUND($,#134,.T.);
#91=FACE_OUTER_BOUND($,#137,.T.);
#92=FACE_OUTER_BOUND($,#140,.T.);
#93=FACE_OUTER_BOUND($,#142,.T.);
#94=FACE_OUTER_BOUND($,#144,.T.);
#95=FACE_OUTER_BOUND($,#145,.T.);
#96=FACE_OUTER_BOUND($,#147,.T.);
#97=FACE_OUTER_BOUND($,#149,.T.);
#98=FACE_OUTER_BOUND($,#150,.T.);
#99=FACE_OUTER_BOUND($,#151,.T.);
#100=FACE_OUTER_BOUND($,#152,.T.);
#101=EDGE_LOOP($,(#237));
#102=EDGE_LOOP($,(#238));
#103=EDGE_LOOP($,(#239));
#104=EDGE_LOOP($,(#240));
#105=EDGE_LOOP($,(#241));
#106=EDGE_LOOP($,(#242));
#107=EDGE_LOOP($,(#243));
#108=EDGE_LOOP($,(#244));
#109=EDGE_LOOP($,(#245));
#110=EDGE_LOOP($,(#246));
#111=EDGE_LOOP($,(#247));
#112=EDGE_LOOP($,(#248));
#113=EDGE_LOOP($,(#249));
#114=EDGE_LOOP($,(#250));
#115=EDGE_LOOP($,(#251));
#116=EDGE_LOOP($,(#252));
#117=EDGE_LOOP($,(#253));
#118=EDGE_LOOP($,(#254));
#119=EDGE_LOOP($,(#255));
#120=EDGE_LOOP($,(#256));
#121=EDGE_LOOP($,(#257));
#122=EDGE_LOOP($,(#258));
#123=EDGE_LOOP($,(#259));
#124=EDGE_LOOP($,(#260));
#125=EDGE_LOOP($,(#261));
#126=EDGE_LOOP($,(#262));
#127=EDGE_LOOP($,(#263));
#128=EDGE_LOOP($,(#264));
#129=EDGE_LOOP($,(#265,#266,#267,#268));
#130=EDGE_LOOP($,(#269));
#131=EDGE_LOOP($,(#270));
#132=EDGE_LOOP($,(#271));
#133=EDGE_LOOP($,(#272));
#134=EDGE_LOOP($,(#273,#274));
#135=EDGE_LOOP($,(#275));
#136=EDGE_LOOP($,(#276));
#137=EDGE_LOOP($,(#277));
#138=EDGE_LOOP($,(#278));
#139=EDGE_LOOP($,(#279));
#140=EDGE_LOOP($,(#280,#281));
#141=EDGE_LOOP($,(#282));
#142=EDGE_LOOP($,(#283));
#143=EDGE_LOOP($,(#284));
#144=EDGE_LOOP($,(#285,#286,#287,#288));
#145=EDGE_LOOP($,(#289));
#146=EDGE_LOOP($,(#290));
#147=EDGE_LOOP($,(#291));
#148=EDGE_LOOP($,(#292));
#149=EDGE_LOOP($,(#293));
#150=EDGE_LOOP($,(#294));
#151=EDGE_LOOP($,(#295));
#152=EDGE_LOOP($,(#296));
#153=CIRCLE($,#333,1.1);
#154=CIRCLE($,#334,1.1);
#155=CIRCLE($,#336,1.1);
#156=CIRCLE($,#337,1.1);
#157=CIRCLE($,#339,1.1);
#158=CIRCLE($,#340,1.1);
#159=CIRCLE($,#342,1.1);
#160=CIRCLE($,#343,1.1);
#161=CIRCLE($,#345,0.5);
#162=CIRCLE($,#346,0.5);
#163=CIRCLE($,#348,0.5);
#164=CIRCLE($,#349,0.5);
#165=CIRCLE($,#351,1.1);
#166=CIRCLE($,#354,1.1);
#167=CIRCLE($,#356,1.1);
#168=CIRCLE($,#357,1.1);
#169=CIRCLE($,#359,1.59999999999997);
#170=CIRCLE($,#360,1.59999999999997);
#171=CIRCLE($,#362,1.1);
#172=CIRCLE($,#365,1.75);
#173=CIRCLE($,#366,1.75);
#174=CIRCLE($,#368,3.);
#175=CIRCLE($,#369,3.);
#176=CIRCLE($,#371,1.25);
#177=CIRCLE($,#372,1.25);
#178=CIRCLE($,#374,1.1);
#179=VERTEX_POINT($,#508);
#180=VERTEX_POINT($,#510);
#181=VERTEX_POINT($,#513);
#182=VERTEX_POINT($,#515);
#183=VERTEX_POINT($,#518);
#184=VERTEX_POINT($,#520);
#185=VERTEX_POINT($,#523);
#186=VERTEX_POINT($,#525);
#187=VERTEX_POINT($,#528);
#188=VERTEX_POINT($,#530);
#189=VERTEX_POINT($,#533);
#190=VERTEX_POINT($,#535);
#191=VERTEX_POINT($,#538);
#192=VERTEX_POINT($,#542);
#193=VERTEX_POINT($,#545);
#194=VERTEX_POINT($,#547);
#195=VERTEX_POINT($,#550);
#196=VERTEX_POINT($,#552);
#197=VERTEX_POINT($,#555);
#198=VERTEX_POINT($,#559);
#199=VERTEX_POINT($,#561);
#200=VERTEX_POINT($,#564);
#201=VERTEX_POINT($,#565);
#202=VERTEX_POINT($,#567);
#203=VERTEX_POINT($,#569);
#204=VERTEX_POINT($,#573);
#205=VERTEX_POINT($,#575);
#206=VERTEX_POINT($,#578);
#207=EDGE_CURVE($,#179,#179,#153,.T.);
#208=EDGE_CURVE($,#180,#180,#154,.T.);
#209=EDGE_CURVE($,#181,#181,#155,.T.);
#210=EDGE_CURVE($,#182,#182,#156,.T.);
#211=EDGE_CURVE($,#183,#183,#157,.T.);
#212=EDGE_CURVE($,#184,#184,#158,.T.);
#213=EDGE_CURVE($,#185,#185,#159,.T.);
#214=EDGE_CURVE($,#186,#186,#160,.T.);
#215=EDGE_CURVE($,#187,#187,#161,.T.);
#216=EDGE_CURVE($,#188,#188,#162,.T.);
#217=EDGE_CURVE($,#189,#189,#163,.T.);
#218=EDGE_CURVE($,#190,#190,#164,.T.);
#219=EDGE_CURVE($,#191,#191,#165,.T.);
#220=EDGE_CURVE($,#192,#192,#166,.T.);
#221=EDGE_CURVE($,#193,#193,#167,.T.);
#222=EDGE_CURVE($,#194,#194,#168,.T.);
#223=EDGE_CURVE($,#195,#195,#169,.T.);
#224=EDGE_CURVE($,#196,#196,#170,.T.);
#225=EDGE_CURVE($,#197,#197,#171,.T.);
#226=EDGE_CURVE($,#198,#198,#172,.T.);
#227=EDGE_CURVE($,#199,#199,#173,.T.);
#228=EDGE_CURVE($,#200,#201,#174,.T.);
#229=EDGE_CURVE($,#201,#202,#28,.T.);
#230=EDGE_CURVE($,#203,#202,#175,.T.);
#231=EDGE_CURVE($,#200,#203,#29,.T.);
#232=EDGE_CURVE($,#204,#204,#176,.T.);
#233=EDGE_CURVE($,#205,#205,#177,.T.);
#234=EDGE_CURVE($,#206,#206,#178,.T.);
#235=EDGE_CURVE($,#200,#201,#30,.T.);
#236=EDGE_CURVE($,#203,#202,#31,.T.);
#237=ORIENTED_EDGE($,*,*,#207,.T.);
#238=ORIENTED_EDGE($,*,*,#208,.F.);
#239=ORIENTED_EDGE($,*,*,#209,.T.);
#240=ORIENTED_EDGE($,*,*,#210,.F.);
#241=ORIENTED_EDGE($,*,*,#211,.T.);
#242=ORIENTED_EDGE($,*,*,#212,.F.);
#243=ORIENTED_EDGE($,*,*,#213,.T.);
#244=ORIENTED_EDGE($,*,*,#214,.F.);
#245=ORIENTED_EDGE($,*,*,#215,.F.);
#246=ORIENTED_EDGE($,*,*,#216,.T.);
#247=ORIENTED_EDGE($,*,*,#217,.F.);
#248=ORIENTED_EDGE($,*,*,#218,.T.);
#249=ORIENTED_EDGE($,*,*,#207,.F.);
#250=ORIENTED_EDGE($,*,*,#219,.T.);
#251=ORIENTED_EDGE($,*,*,#208,.T.);
#252=ORIENTED_EDGE($,*,*,#209,.F.);
#253=ORIENTED_EDGE($,*,*,#210,.T.);
#254=ORIENTED_EDGE($,*,*,#220,.F.);
#255=ORIENTED_EDGE($,*,*,#221,.F.);
#256=ORIENTED_EDGE($,*,*,#222,.F.);
#257=ORIENTED_EDGE($,*,*,#223,.T.);
#258=ORIENTED_EDGE($,*,*,#224,.F.);
#259=ORIENTED_EDGE($,*,*,#211,.F.);
#260=ORIENTED_EDGE($,*,*,#225,.T.);
#261=ORIENTED_EDGE($,*,*,#212,.T.);
#262=ORIENTED_EDGE($,*,*,#213,.F.);
#263=ORIENTED_EDGE($,*,*,#226,.T.);
#264=ORIENTED_EDGE($,*,*,#227,.F.);
#265=ORIENTED_EDGE($,*,*,#228,.T.);
#266=ORIENTED_EDGE($,*,*,#229,.T.);
#267=ORIENTED_EDGE($,*,*,#230,.F.);
#268=ORIENTED_EDGE($,*,*,#231,.F.);
#269=ORIENTED_EDGE($,*,*,#232,.T.);
#270=ORIENTED_EDGE($,*,*,#233,.F.);
#271=ORIENTED_EDGE($,*,*,#214,.T.);
#272=ORIENTED_EDGE($,*,*,#234,.T.);
#273=ORIENTED_EDGE($,*,*,#228,.F.);
#274=ORIENTED_EDGE($,*,*,#235,.T.);
#275=ORIENTED_EDGE($,*,*,#219,.F.);
#276=ORIENTED_EDGE($,*,*,#225,.F.);
#277=ORIENTED_EDGE($,*,*,#233,.T.);
#278=ORIENTED_EDGE($,*,*,#216,.F.);
#279=ORIENTED_EDGE($,*,*,#218,.F.);
#280=ORIENTED_EDGE($,*,*,#230,.T.);
#281=ORIENTED_EDGE($,*,*,#236,.F.);
#282=ORIENTED_EDGE($,*,*,#226,.F.);
#283=ORIENTED_EDGE($,*,*,#227,.T.);
#284=ORIENTED_EDGE($,*,*,#232,.F.);
#285=ORIENTED_EDGE($,*,*,#236,.T.);
#286=ORIENTED_EDGE($,*,*,#229,.F.);
#287=ORIENTED_EDGE($,*,*,#235,.F.);
#288=ORIENTED_EDGE($,*,*,#231,.T.);
#289=ORIENTED_EDGE($,*,*,#223,.F.);
#290=ORIENTED_EDGE($,*,*,#234,.F.);
#291=ORIENTED_EDGE($,*,*,#224,.T.);
#292=ORIENTED_EDGE($,*,*,#221,.T.);
#293=ORIENTED_EDGE($,*,*,#222,.T.);
#294=ORIENTED_EDGE($,*,*,#220,.T.);
#295=ORIENTED_EDGE($,*,*,#217,.T.);
#296=ORIENTED_EDGE($,*,*,#215,.T.);
#297=TOROIDAL_SURFACE($,#332,4.,1.1);
#298=TOROIDAL_SURFACE($,#335,4.,1.1);
#299=TOROIDAL_SURFACE($,#338,4.,1.1);
#300=TOROIDAL_SURFACE($,#341,4.,1.1);
#301=ADVANCED_FACE($,(#73,#49),#297,.T.);
#302=ADVANCED_FACE($,(#74,#50),#298,.T.);
#303=ADVANCED_FACE($,(#75,#51),#299,.T.);
#304=ADVANCED_FACE($,(#76,#52),#300,.T.);
#305=ADVANCED_FACE($,(#77,#53),#36,.F.);
#306=ADVANCED_FACE($,(#78,#54),#37,.F.);
#307=ADVANCED_FACE($,(#79,#55),#38,.T.);
#308=ADVANCED_FACE($,(#80,#56),#39,.T.);
#309=ADVANCED_FACE($,(#81,#57),#40,.T.);
#310=ADVANCED_FACE($,(#82,#58),#41,.T.);
#311=ADVANCED_FACE($,(#83,#59),#42,.T.);
#312=ADVANCED_FACE($,(#84,#60),#43,.T.);
#313=ADVANCED_FACE($,(#85,#61),#44,.T.);
#314=ADVANCED_FACE($,(#86,#62),#45,.T.);
#315=ADVANCED_FACE($,(#87),#46,.T.);
#316=ADVANCED_FACE($,(#88,#63),#47,.T.);
#317=ADVANCED_FACE($,(#89,#64),#48,.T.);
#318=ADVANCED_FACE($,(#90,#65,#66),#17,.F.);
#319=ADVANCED_FACE($,(#91,#67,#68),#18,.F.);
#320=ADVANCED_FACE($,(#92,#69),#19,.F.);
#321=ADVANCED_FACE($,(#93,#70),#20,.F.);
#322=ADVANCED_FACE($,(#94),#21,.F.);
#323=ADVANCED_FACE($,(#95,#71),#22,.F.);
#324=ADVANCED_FACE($,(#96,#72),#23,.T.);
#325=ADVANCED_FACE($,(#97),#24,.T.);
#326=ADVANCED_FACE($,(#98),#25,.T.);
#327=ADVANCED_FACE($,(#99),#26,.T.);
#328=ADVANCED_FACE($,(#100),#27,.T.);
#329=CLOSED_SHELL($,(#301,#302,#303,#304,#305,#306,#307,#308,#309,#310,
#311,#312,#313,#314,#315,#316,#317,#318,#319,#320,#321,#322,#323,#324,#325,
#326,#327,#328));
#330=MANIFOLD_SOLID_BREP('NONE',#329);
#331=AXIS2_PLACEMENT_3D('placement',#506,#388,#389);
#332=AXIS2_PLACEMENT_3D($,#507,#390,#391);
#333=AXIS2_PLACEMENT_3D($,#509,#392,#393);
#334=AXIS2_PLACEMENT_3D($,#511,#394,#395);
#335=AXIS2_PLACEMENT_3D($,#512,#396,#397);
#336=AXIS2_PLACEMENT_3D($,#514,#398,#399);
#337=AXIS2_PLACEMENT_3D($,#516,#400,#401);
#338=AXIS2_PLACEMENT_3D($,#517,#402,#403);
#339=AXIS2_PLACEMENT_3D($,#519,#404,#405);
#340=AXIS2_PLACEMENT_3D($,#521,#406,#407);
#341=AXIS2_PLACEMENT_3D($,#522,#408,#409);
#342=AXIS2_PLACEMENT_3D($,#524,#410,#411);
#343=AXIS2_PLACEMENT_3D($,#526,#412,#413);
#344=AXIS2_PLACEMENT_3D($,#527,#414,#415);
#345=AXIS2_PLACEMENT_3D($,#529,#416,#417);
#346=AXIS2_PLACEMENT_3D($,#531,#418,#419);
#347=AXIS2_PLACEMENT_3D($,#532,#420,#421);
#348=AXIS2_PLACEMENT_3D($,#534,#422,#423);
#349=AXIS2_PLACEMENT_3D($,#536,#424,#425);
#350=AXIS2_PLACEMENT_3D($,#537,#426,#427);
#351=AXIS2_PLACEMENT_3D($,#539,#428,#429);
#352=AXIS2_PLACEMENT_3D($,#540,#430,#431);
#353=AXIS2_PLACEMENT_3D($,#541,#432,#433);
#354=AXIS2_PLACEMENT_3D($,#543,#434,#435);
#355=AXIS2_PLACEMENT_3D($,#544,#436,#437);
#356=AXIS2_PLACEMENT_3D($,#546,#438,#439);
#357=AXIS2_PLACEMENT_3D($,#548,#440,#441);
#358=AXIS2_PLACEMENT_3D($,#549,#442,#443);
#359=AXIS2_PLACEMENT_3D($,#551,#444,#445);
#360=AXIS2_PLACEMENT_3D($,#553,#446,#447);
#361=AXIS2_PLACEMENT_3D($,#554,#448,#449);
#362=AXIS2_PLACEMENT_3D($,#556,#450,#451);
#363=AXIS2_PLACEMENT_3D($,#557,#452,#453);
#364=AXIS2_PLACEMENT_3D($,#558,#454,#455);
#365=AXIS2_PLACEMENT_3D($,#560,#456,#457);
#366=AXIS2_PLACEMENT_3D($,#562,#458,#459);
#367=AXIS2_PLACEMENT_3D($,#563,#460,#461);
#368=AXIS2_PLACEMENT_3D($,#566,#462,#463);
#369=AXIS2_PLACEMENT_3D($,#570,#465,#466);
#370=AXIS2_PLACEMENT_3D($,#572,#468,#469);
#371=AXIS2_PLACEMENT_3D($,#574,#470,#471);
#372=AXIS2_PLACEMENT_3D($,#576,#472,#473);
#373=AXIS2_PLACEMENT_3D($,#577,#474,#475);
#374=AXIS2_PLACEMENT_3D($,#579,#476,#477);
#375=AXIS2_PLACEMENT_3D($,#580,#478,#479);
#376=AXIS2_PLACEMENT_3D($,#582,#481,#482);
#377=AXIS2_PLACEMENT_3D($,#583,#483,#484);
#378=AXIS2_PLACEMENT_3D($,#585,#486,#487);
#379=AXIS2_PLACEMENT_3D($,#586,#488,#489);
#380=AXIS2_PLACEMENT_3D($,#587,#490,#491);
#381=AXIS2_PLACEMENT_3D($,#588,#492,#493);
#382=AXIS2_PLACEMENT_3D($,#589,#494,#495);
#383=AXIS2_PLACEMENT_3D($,#590,#496,#497);
#384=AXIS2_PLACEMENT_3D($,#591,#498,#499);
#385=AXIS2_PLACEMENT_3D($,#592,#500,#501);
#386=AXIS2_PLACEMENT_3D('placement',#593,#502,#503);
#387=AXIS2_PLACEMENT_3D($,#594,#504,#505);
#388=DIRECTION('axis',(0.,0.,1.));
#389=DIRECTION('refdir',(1.,0.,0.));
#390=DIRECTION('center_axis',(-1.,0.,0.));
#391=DIRECTION('ref_axis',(0.,0.,1.));
#392=DIRECTION('center_axis',(0.,0.,-1.));
#393=DIRECTION('ref_axis',(-1.,0.,0.));
#394=DIRECTION('center_axis',(0.,-0.573462344363328,-0.81923192051904));
#395=DIRECTION('ref_axis',(-1.,0.,0.));
#396=DIRECTION('center_axis',(1.,0.,0.));
#397=DIRECTION('ref_axis',(0.,0.,-1.));
#398=DIRECTION('center_axis',(0.,-0.573462344363328,-0.81923192051904));
#399=DIRECTION('ref_axis',(-1.,0.,0.));
#400=DIRECTION('center_axis',(0.,1.49880108324396E-015,-1.));
#401=DIRECTION('ref_axis',(-1.,0.,0.));
#402=DIRECTION('center_axis',(1.,0.,0.));
#403=DIRECTION('ref_axis',(0.,0.,-1.));
#404=DIRECTION('center_axis',(0.,0.,-1.));
#405=DIRECTION('ref_axis',(-1.,0.,0.));
#406=DIRECTION('center_axis',(0.,0.573462344363328,-0.81923192051904));
#407=DIRECTION('ref_axis',(-1.,0.,0.));
#408=DIRECTION('center_axis',(-1.,0.,0.));
#409=DIRECTION('ref_axis',(0.,0.,1.));
#410=DIRECTION('center_axis',(0.,0.573462344363328,-0.81923192051904));
#411=DIRECTION('ref_axis',(-1.,0.,0.));
#412=DIRECTION('center_axis',(0.,-9.43689570931383E-016,-1.));
#413=DIRECTION('ref_axis',(-1.,0.,0.));
#414=DIRECTION('center_axis',(0.,0.,1.));
#415=DIRECTION('ref_axis',(1.,0.,0.));
#416=DIRECTION('center_axis',(0.,0.,1.));
#417=DIRECTION('ref_axis',(1.,0.,0.));
#418=DIRECTION('center_axis',(0.,0.,1.));
#419=DIRECTION('ref_axis',(1.,0.,0.));
#420=DIRECTION('center_axis',(0.,0.,1.));
#421=DIRECTION('ref_axis',(1.,0.,0.));
#422=DIRECTION('center_axis',(0.,0.,1.));
#423=DIRECTION('ref_axis',(1.,0.,0.));
#424=DIRECTION('center_axis',(0.,0.,1.));
#425=DIRECTION('ref_axis',(1.,0.,0.));
#426=DIRECTION('center_axis',(0.,-5.79925094621976E-017,1.));
#427=DIRECTION('ref_axis',(0.,-1.,-5.79925094621976E-017));
#428=DIRECTION('center_axis',(0.,0.,-1.));
#429=DIRECTION('ref_axis',(-1.,0.,0.));
#430=DIRECTION('center_axis',(0.,-0.573462344363329,-0.81923192051904));
#431=DIRECTION('ref_axis',(0.,0.81923192051904,-0.573462344363329));
#432=DIRECTION('center_axis',(0.,2.23898203619225E-017,-1.));
#433=DIRECTION('ref_axis',(0.,1.,2.23898203619225E-017));
#434=DIRECTION('center_axis',(0.,1.49880108324396E-015,-1.));
#435=DIRECTION('ref_axis',(-1.,0.,0.));
#436=DIRECTION('center_axis',(0.,-6.71694610857675E-017,-1.));
#437=DIRECTION('ref_axis',(0.,1.,-6.71694610857675E-017));
#438=DIRECTION('center_axis',(0.,-1.66533453693773E-015,1.));
#439=DIRECTION('ref_axis',(0.,1.,1.66533453693773E-015));
#440=DIRECTION('center_axis',(0.,-9.43689570931383E-016,-1.));
#441=DIRECTION('ref_axis',(-1.,0.,0.));
#442=DIRECTION('center_axis',(0.,1.66533453693773E-015,-1.));
#443=DIRECTION('ref_axis',(0.,1.,1.66533453693773E-015));
#444=DIRECTION('center_axis',(0.,1.66533453693773E-015,-1.));
#445=DIRECTION('ref_axis',(0.,1.,1.66533453693773E-015));
#446=DIRECTION('center_axis',(0.,1.66533453693773E-015,-1.));
#447=DIRECTION('ref_axis',(0.,1.,1.66533453693773E-015));
#448=DIRECTION('center_axis',(0.,5.79925094621976E-017,1.));
#449=DIRECTION('ref_axis',(0.,-1.,5.79925094621976E-017));
#450=DIRECTION('center_axis',(0.,0.,-1.));
#451=DIRECTION('ref_axis',(-1.,0.,0.));
#452=DIRECTION('center_axis',(0.,0.573462344363329,-0.81923192051904));
#453=DIRECTION('ref_axis',(0.,0.81923192051904,0.573462344363329));
#454=DIRECTION('center_axis',(0.,1.97127667724637E-018,1.));
#455=DIRECTION('ref_axis',(0.,-1.,1.97127667724637E-018));
#456=DIRECTION('center_axis',(0.,1.97127667724637E-018,1.));
#457=DIRECTION('ref_axis',(0.,-1.,1.97127667724637E-018));
#458=DIRECTION('center_axis',(0.,1.97127667724637E-018,1.));
#459=DIRECTION('ref_axis',(0.,-1.,1.97127667724637E-018));
#460=DIRECTION('center_axis',(0.,1.97127667724637E-018,1.));
#461=DIRECTION('ref_axis',(0.,-1.,1.97127667724637E-018));
#462=DIRECTION('center_axis',(0.,1.97127667724637E-018,1.));
#463=DIRECTION('ref_axis',(0.,-1.,1.97127667724637E-018));
#464=DIRECTION($,(0.,0.,1.));
#465=DIRECTION('center_axis',(0.,1.97127667724637E-018,1.));
#466=DIRECTION('ref_axis',(0.,-1.,1.97127667724637E-018));
#467=DIRECTION($,(0.,0.,1.));
#468=DIRECTION('center_axis',(0.,1.97127667724637E-018,1.));
#469=DIRECTION('ref_axis',(0.,-1.,1.97127667724637E-018));
#470=DIRECTION('center_axis',(0.,1.97127667724637E-018,1.));
#471=DIRECTION('ref_axis',(0.,-1.,1.97127667724637E-018));
#472=DIRECTION('center_axis',(0.,1.97127667724637E-018,1.));
#473=DIRECTION('ref_axis',(0.,-1.,1.97127667724637E-018));
#474=DIRECTION('center_axis',(0.,-6.71694610857675E-017,-1.));
#475=DIRECTION('ref_axis',(0.,1.,-6.71694610857675E-017));
#476=DIRECTION('center_axis',(0.,-1.66533453693773E-015,1.));
#477=DIRECTION('ref_axis',(0.,1.,1.66533453693773E-015));
#478=DIRECTION('center_axis',(0.,1.97127667724637E-018,1.));
#479=DIRECTION('ref_axis',(0.,-1.,0.));
#480=DIRECTION($,(0.,-1.,0.));
#481=DIRECTION('center_axis',(0.,-1.97127667724637E-018,-1.));
#482=DIRECTION('ref_axis',(0.,1.,-1.97127667724637E-018));
#483=DIRECTION('center_axis',(0.,-1.97127667724637E-018,-1.));
#484=DIRECTION('ref_axis',(0.,1.,0.));
#485=DIRECTION($,(0.,-1.,0.));
#486=DIRECTION('center_axis',(0.,-1.97127667724637E-018,-1.));
#487=DIRECTION('ref_axis',(0.,1.,0.));
#488=DIRECTION('center_axis',(-1.,0.,0.));
#489=DIRECTION('ref_axis',(0.,0.,1.));
#490=DIRECTION('center_axis',(0.,1.66533453693773E-015,-1.));
#491=DIRECTION('ref_axis',(0.,1.,0.));
#492=DIRECTION('center_axis',(0.,1.66533453693773E-015,-1.));
#493=DIRECTION('ref_axis',(0.,1.,0.));
#494=DIRECTION('center_axis',(0.,-9.43689570931383E-016,-1.));
#495=DIRECTION('ref_axis',(-1.,0.,0.));
#496=DIRECTION('center_axis',(0.,1.49880108324396E-015,-1.));
#497=DIRECTION('ref_axis',(-1.,0.,0.));
#498=DIRECTION('center_axis',(0.,0.,1.));
#499=DIRECTION('ref_axis',(1.,0.,0.));
#500=DIRECTION('center_axis',(0.,0.,1.));
#501=DIRECTION('ref_axis',(1.,0.,0.));
#502=DIRECTION('axis',(0.,0.,1.));
#503=DIRECTION('refdir',(1.,0.,0.));
#504=DIRECTION($,(0.,0.,1.));
#505=DIRECTION($,(1.,0.,0.));
#506=CARTESIAN_POINT('',(0.,0.,0.));
#507=CARTESIAN_POINT('Origin',(0.,-5.7,-58.7391110767236));
#508=CARTESIAN_POINT('',(0.,-2.8,-58.7391110767236));
#509=CARTESIAN_POINT('Origin',(0.,-1.7,-58.7391110767236));
#510=CARTESIAN_POINT('',(1.34706698920462E-016,-3.32422743049478,-60.4021518753772));
#511=CARTESIAN_POINT('Origin',(0.,-2.42307231792384,-61.0329604541769));
#512=CARTESIAN_POINT('Origin',(0.,-1.2,-66.2608889232764));
#513=CARTESIAN_POINT('',(0.,-3.57577256950521,-64.5978481246227));
#514=CARTESIAN_POINT('Origin',(0.,-4.47692768207616,-63.9670395458231));
#515=CARTESIAN_POINT('',(0.,-4.1,-66.2608889232764));
#516=CARTESIAN_POINT('Origin',(0.,-5.2,-66.2608889232764));
#517=CARTESIAN_POINT('Origin',(0.,4.6,-58.7391110767236));
#518=CARTESIAN_POINT('',(1.34706698920461E-016,1.7,-58.7391110767236));
#519=CARTESIAN_POINT('Origin',(0.,0.6,-58.7391110767236));
#520=CARTESIAN_POINT('',(0.,2.22422743049479,-60.4021518753773));
#521=CARTESIAN_POINT('Origin',(0.,1.32307231792384,-61.0329604541769));
#522=CARTESIAN_POINT('Origin',(0.,0.1,-66.2608889232764));
#523=CARTESIAN_POINT('',(1.34706698920462E-016,2.47577256950522,-64.5978481246227));
#524=CARTESIAN_POINT('Origin',(0.,3.37692768207616,-63.9670395458231));
#525=CARTESIAN_POINT('',(1.34706698920461E-016,2.99999999999999,-66.2608889232764));
#526=CARTESIAN_POINT('Origin',(0.,4.09999999999999,-66.2608889232764));
#527=CARTESIAN_POINT('Origin',(0.,-1.1,-0.1));
#528=CARTESIAN_POINT('',(0.5,-1.1,-0.1));
#529=CARTESIAN_POINT('Origin',(0.,-1.1,-0.1));
#530=CARTESIAN_POINT('',(0.5,-1.1,0.));
#531=CARTESIAN_POINT('Origin',(0.,-1.1,0.));
#532=CARTESIAN_POINT('Origin',(0.,0.,-0.1));
#533=CARTESIAN_POINT('',(0.5,0.,-0.1));
#534=CARTESIAN_POINT('Origin',(0.,0.,-0.1));
#535=CARTESIAN_POINT('',(0.5,0.,0.));
#536=CARTESIAN_POINT('Origin',(0.,0.,0.));
#537=CARTESIAN_POINT('Origin',(0.,-1.7,-58.7391110767236));
#538=CARTESIAN_POINT('',(0.,-2.8,-55.));
#539=CARTESIAN_POINT('Origin',(0.,-1.7,-55.));
#540=CARTESIAN_POINT('Origin',(0.,-2.42307231792384,-61.0329604541769));
#541=CARTESIAN_POINT('Origin',(0.,-5.2,-66.2608889232764));
#542=CARTESIAN_POINT('',(0.,-4.1,-105.));
#543=CARTESIAN_POINT('Origin',(0.,-5.2,-105.));
#544=CARTESIAN_POINT('Origin',(0.,4.09999999999999,-66.2608889232764));
#545=CARTESIAN_POINT('',(0.,5.19999999999999,-97.));
#546=CARTESIAN_POINT('Origin',(0.,4.09999999999999,-97.));
#547=CARTESIAN_POINT('',(0.,5.19999999999999,-105.));
#548=CARTESIAN_POINT('Origin',(0.,4.09999999999999,-105.));
#549=CARTESIAN_POINT('Origin',(0.,4.09999999999999,-67.));
#550=CARTESIAN_POINT('',(0.,5.69999999999997,-67.));
#551=CARTESIAN_POINT('Origin',(0.,4.09999999999999,-67.));
#552=CARTESIAN_POINT('',(0.,5.70000000000002,-97.));
#553=CARTESIAN_POINT('Origin',(0.,4.10000000000004,-97.));
#554=CARTESIAN_POINT('Origin',(0.,0.6,-58.7391110767236));
#555=CARTESIAN_POINT('',(0.,-0.5,-55.));
#556=CARTESIAN_POINT('Origin',(0.,0.6,-55.));
#557=CARTESIAN_POINT('Origin',(0.,1.32307231792384,-61.0329604541769));
#558=CARTESIAN_POINT('Origin',(0.,-0.55,0.));
#559=CARTESIAN_POINT('',(0.,-2.3,-40.));
#560=CARTESIAN_POINT('Origin',(0.,-0.55,-40.));
#561=CARTESIAN_POINT('',(0.,-2.3,-35.));
#562=CARTESIAN_POINT('Origin',(0.,-0.55,-35.));
#563=CARTESIAN_POINT('Origin',(0.,-0.55,0.));
#564=CARTESIAN_POINT('',(2.5,1.1083123951777,-55.));
#565=CARTESIAN_POINT('',(2.5,-2.2083123951777,-55.));
#566=CARTESIAN_POINT('Origin',(0.,-0.55,-55.));
#567=CARTESIAN_POINT('',(2.5,-2.2083123951777,-40.));
#568=CARTESIAN_POINT($,(2.5,-2.2083123951777,-55.));
#569=CARTESIAN_POINT('',(2.5,1.1083123951777,-40.));
#570=CARTESIAN_POINT('Origin',(0.,-0.55,-40.));
#571=CARTESIAN_POINT($,(2.5,1.1083123951777,-55.));
#572=CARTESIAN_POINT('Origin',(0.,-0.55,0.));
#573=CARTESIAN_POINT('',(0.,-1.8,-35.));
#574=CARTESIAN_POINT('Origin',(0.,-0.55,-35.));
#575=CARTESIAN_POINT('',(0.,-1.8,4.92819169311593E-018));
#576=CARTESIAN_POINT('Origin',(0.,-0.55,2.46409584655796E-018));
#577=CARTESIAN_POINT('Origin',(0.,4.09999999999999,-66.2608889232764));
#578=CARTESIAN_POINT('',(0.,5.19999999999999,-67.));
#579=CARTESIAN_POINT('Origin',(0.,4.09999999999999,-67.));
#580=CARTESIAN_POINT('Origin',(0.,2.45,-55.));
#581=CARTESIAN_POINT($,(2.5,1.1083123951777,-55.));
#582=CARTESIAN_POINT('Origin',(0.,-0.55,1.23204792327898E-018));
#583=CARTESIAN_POINT('Origin',(0.,1.2,-40.));
#584=CARTESIAN_POINT($,(2.5,1.1083123951777,-40.));
#585=CARTESIAN_POINT('Origin',(0.,0.7,-35.));
#586=CARTESIAN_POINT('Origin',(2.5,1.1083123951777,-55.));
#587=CARTESIAN_POINT('Origin',(0.,4.09999999999999,-67.));
#588=CARTESIAN_POINT('Origin',(0.,4.10000000000004,-97.));
#589=CARTESIAN_POINT('Origin',(0.,4.09999999999999,-105.));
#590=CARTESIAN_POINT('Origin',(0.,-5.2,-105.));
#591=CARTESIAN_POINT('Origin',(0.,0.,-0.1));
#592=CARTESIAN_POINT('Origin',(0.,-1.1,-0.1));
#593=CARTESIAN_POINT('',(0.,0.,0.));
#594=CARTESIAN_POINT($,(0.,0.,0.));
#595=UNCERTAINTY_MEASURE_WITH_UNIT(LENGTH_MEASURE(0.01),#599,
'DISTANCE_ACCURACY_VALUE',
'Maximum model space distance between geometric entities at asserted c
onnectivities');
#596=UNCERTAINTY_MEASURE_WITH_UNIT(LENGTH_MEASURE(0.01),#599,
'DISTANCE_ACCURACY_VALUE',
'Maximum model space distance between geometric entities at asserted c
onnectivities');
#597=(
GEOMETRIC_REPRESENTATION_CONTEXT(3)
GLOBAL_UNCERTAINTY_ASSIGNED_CONTEXT((#595))
GLOBAL_UNIT_ASSIGNED_CONTEXT((#599,#601,#600))
REPRESENTATION_CONTEXT('','3D')
);
#598=(
GEOMETRIC_REPRESENTATION_CONTEXT(3)
GLOBAL_UNCERTAINTY_ASSIGNED_CONTEXT((#596))
GLOBAL_UNIT_ASSIGNED_CONTEXT((#599,#601,#600))
REPRESENTATION_CONTEXT('','3D')
);
#599=(
LENGTH_UNIT()
NAMED_UNIT(*)
SI_UNIT(.MILLI.,.METRE.)
);
#600=(
NAMED_UNIT(*)
SI_UNIT($,.STERADIAN.)
SOLID_ANGLE_UNIT()
);
#601=(
NAMED_UNIT(*)
PLANE_ANGLE_UNIT()
SI_UNIT($,.RADIAN.)
);
#602=SHAPE_DEFINITION_REPRESENTATION(#604,#607);
#603=SHAPE_DEFINITION_REPRESENTATION(#605,#608);
#604=PRODUCT_DEFINITION_SHAPE('',$,#610);
#605=PRODUCT_DEFINITION_SHAPE('',$,#611);
#606=PRODUCT_DEFINITION_SHAPE($,$,#13);
#607=SHAPE_REPRESENTATION('',(#331),#597);
#608=SHAPE_REPRESENTATION('',(#386,#387),#598);
#609=PRODUCT_DEFINITION_CONTEXT('3D Mechanical Parts',#615,'design');
#610=PRODUCT_DEFINITION('LT207004_','LT207004_',#612,#609);
#611=PRODUCT_DEFINITION('LT207004','LT207004',#613,#609);
#612=PRODUCT_DEFINITION_FORMATION('',$,#617);
#613=PRODUCT_DEFINITION_FORMATION('',$,#618);
#614=APPLICATION_PROTOCOL_DEFINITION('international standard',
'automotive_design',2009,#615);
#615=APPLICATION_CONTEXT(
'Core Data for Automotive Mechanical Design Process');
#616=PRODUCT_CONTEXT('3D Mechanical Parts',#615,'mechanical');
#617=PRODUCT('LT207004_','LT207004_',$,(#616));
#618=PRODUCT('LT207004','LT207004',$,(#616));
#619=PRESENTATION_STYLE_ASSIGNMENT((#620));
#620=SURFACE_STYLE_USAGE(.BOTH.,#621);
#621=SURFACE_SIDE_STYLE($,(#622));
#622=SURFACE_STYLE_FILL_AREA(#623);
#623=FILL_AREA_STYLE($,(#624));
#624=FILL_AREA_STYLE_COLOUR($,#625);
#625=COLOUR_RGB('',0.749019607843137,0.749019607843137,0.749019607843137);
ENDSEC;
END-ISO-10303-21;
