ISO-10303-21;
HEADER;
/* Generated by software containing ST-Developer
 * from STEP Tools, Inc. (www.steptools.com) 
 */

FILE_DESCRIPTION(
/* description */ (''),
/* implementation_level */ '2;1');

FILE_NAME(
/* name */ 'ipf_z3d_IBQ50176.stp',
/* time_stamp */ '2026-01-07T13:23:52+01:00',
/* author */ ('g.aydin'),
/* organization */ (''),
/* preprocessor_version */ 'ST-DEVELOPER v20.1',
/* originating_system */ 'Autodesk Inventor 2026',
/* authorisation */ '');

FILE_SCHEMA (('AUTOMOTIVE_DESIGN { 1 0 10303 214 3 1 1 }'));
ENDSEC;

DATA;
#10=MECHANICAL_DESIGN_GEOMETRIC_PRESENTATION_REPRESENTATION('',(#13),#515);
#11=SHAPE_REPRESENTATION_RELATIONSHIP('SRR','None',#522,#12);
#12=ADVANCED_BREP_SHAPE_REPRESENTATION('',(#14),#514);
#13=STYLED_ITEM('',(#531),#14);
#14=MANIFOLD_SOLID_BREP('Volumenk\X\F6rper1',#289);
#15=FACE_BOUND('',#66,.T.);
#16=FACE_BOUND('',#68,.T.);
#17=FACE_BOUND('',#70,.T.);
#18=FACE_BOUND('',#72,.T.);
#19=FACE_BOUND('',#73,.T.);
#20=FACE_BOUND('',#76,.T.);
#21=FACE_BOUND('',#77,.T.);
#22=PLANE('',#337);
#23=PLANE('',#338);
#24=PLANE('',#339);
#25=PLANE('',#340);
#26=PLANE('',#341);
#27=PLANE('',#342);
#28=PLANE('',#343);
#29=PLANE('',#344);
#30=SPHERICAL_SURFACE('',#335,0.5);
#31=CONICAL_SURFACE('',#315,0.70528125,0.785398163397448);
#32=CONICAL_SURFACE('',#320,0.70528125,0.785398163397448);
#33=CONICAL_SURFACE('',#322,0.70528125,0.785398163397448);
#34=CONICAL_SURFACE('',#327,0.70528125,0.785398163397448);
#35=FACE_OUTER_BOUND('',#53,.T.);
#36=FACE_OUTER_BOUND('',#54,.T.);
#37=FACE_OUTER_BOUND('',#55,.T.);
#38=FACE_OUTER_BOUND('',#56,.T.);
#39=FACE_OUTER_BOUND('',#57,.T.);
#40=FACE_OUTER_BOUND('',#58,.T.);
#41=FACE_OUTER_BOUND('',#59,.T.);
#42=FACE_OUTER_BOUND('',#60,.T.);
#43=FACE_OUTER_BOUND('',#61,.T.);
#44=FACE_OUTER_BOUND('',#62,.T.);
#45=FACE_OUTER_BOUND('',#63,.T.);
#46=FACE_OUTER_BOUND('',#64,.T.);
#47=FACE_OUTER_BOUND('',#65,.T.);
#48=FACE_OUTER_BOUND('',#67,.T.);
#49=FACE_OUTER_BOUND('',#69,.T.);
#50=FACE_OUTER_BOUND('',#71,.T.);
#51=FACE_OUTER_BOUND('',#74,.T.);
#52=FACE_OUTER_BOUND('',#75,.T.);
#53=EDGE_LOOP('',(#194,#195,#196,#197));
#54=EDGE_LOOP('',(#198,#199,#200,#201));
#55=EDGE_LOOP('',(#202,#203,#204,#205));
#56=EDGE_LOOP('',(#206,#207,#208,#209));
#57=EDGE_LOOP('',(#210,#211,#212,#213));
#58=EDGE_LOOP('',(#214,#215,#216,#217));
#59=EDGE_LOOP('',(#218,#219,#220,#221));
#60=EDGE_LOOP('',(#222,#223,#224,#225));
#61=EDGE_LOOP('',(#226,#227,#228,#229));
#62=EDGE_LOOP('',(#230,#231,#232));
#63=EDGE_LOOP('',(#233));
#64=EDGE_LOOP('',(#234));
#65=EDGE_LOOP('',(#235,#236,#237,#238));
#66=EDGE_LOOP('',(#239));
#67=EDGE_LOOP('',(#240,#241,#242,#243));
#68=EDGE_LOOP('',(#244));
#69=EDGE_LOOP('',(#245,#246,#247,#248));
#70=EDGE_LOOP('',(#249));
#71=EDGE_LOOP('',(#250,#251,#252,#253));
#72=EDGE_LOOP('',(#254));
#73=EDGE_LOOP('',(#255));
#74=EDGE_LOOP('',(#256,#257,#258,#259));
#75=EDGE_LOOP('',(#260,#261,#262,#263));
#76=EDGE_LOOP('',(#264));
#77=EDGE_LOOP('',(#265));
#78=LINE('',#439,#99);
#79=LINE('',#445,#100);
#80=LINE('',#450,#101);
#81=LINE('',#453,#102);
#82=LINE('',#459,#103);
#83=LINE('',#464,#104);
#84=LINE('',#467,#105);
#85=LINE('',#473,#106);
#86=LINE('',#479,#107);
#87=LINE('',#489,#108);
#88=LINE('',#491,#109);
#89=LINE('',#493,#110);
#90=LINE('',#494,#111);
#91=LINE('',#498,#112);
#92=LINE('',#500,#113);
#93=LINE('',#502,#114);
#94=LINE('',#503,#115);
#95=LINE('',#505,#116);
#96=LINE('',#506,#117);
#97=LINE('',#508,#118);
#98=LINE('',#510,#119);
#99=VECTOR('',#351,1.3);
#100=VECTOR('',#358,0.70528125);
#101=VECTOR('',#365,0.6105625);
#102=VECTOR('',#368,0.70528125);
#103=VECTOR('',#375,0.70528125);
#104=VECTOR('',#382,0.6105625);
#105=VECTOR('',#385,0.70528125);
#106=VECTOR('',#392,1.3);
#107=VECTOR('',#399,0.5);
#108=VECTOR('',#412,25.);
#109=VECTOR('',#413,5.);
#110=VECTOR('',#414,25.);
#111=VECTOR('',#415,5.);
#112=VECTOR('',#418,25.);
#113=VECTOR('',#419,5.);
#114=VECTOR('',#420,25.);
#115=VECTOR('',#421,5.);
#116=VECTOR('',#424,5.);
#117=VECTOR('',#425,5.);
#118=VECTOR('',#428,5.);
#119=VECTOR('',#431,5.);
#120=CIRCLE('',#313,1.3);
#121=CIRCLE('',#314,1.3);
#122=CIRCLE('',#316,0.6105625);
#123=CIRCLE('',#317,0.8);
#124=CIRCLE('',#319,0.6105625);
#125=CIRCLE('',#321,0.8);
#126=CIRCLE('',#323,0.6105625);
#127=CIRCLE('',#324,0.8);
#128=CIRCLE('',#326,0.6105625);
#129=CIRCLE('',#328,0.8);
#130=CIRCLE('',#330,1.3);
#131=CIRCLE('',#331,1.3);
#132=CIRCLE('',#333,0.5);
#133=CIRCLE('',#334,0.5);
#134=CIRCLE('',#336,0.5);
#135=VERTEX_POINT('',#436);
#136=VERTEX_POINT('',#438);
#137=VERTEX_POINT('',#442);
#138=VERTEX_POINT('',#444);
#139=VERTEX_POINT('',#448);
#140=VERTEX_POINT('',#452);
#141=VERTEX_POINT('',#456);
#142=VERTEX_POINT('',#458);
#143=VERTEX_POINT('',#462);
#144=VERTEX_POINT('',#466);
#145=VERTEX_POINT('',#470);
#146=VERTEX_POINT('',#472);
#147=VERTEX_POINT('',#476);
#148=VERTEX_POINT('',#478);
#149=VERTEX_POINT('',#482);
#150=VERTEX_POINT('',#487);
#151=VERTEX_POINT('',#488);
#152=VERTEX_POINT('',#490);
#153=VERTEX_POINT('',#492);
#154=VERTEX_POINT('',#496);
#155=VERTEX_POINT('',#497);
#156=VERTEX_POINT('',#499);
#157=VERTEX_POINT('',#501);
#158=EDGE_CURVE('',#135,#135,#120,.T.);
#159=EDGE_CURVE('',#135,#136,#78,.T.);
#160=EDGE_CURVE('',#136,#136,#121,.T.);
#161=EDGE_CURVE('',#137,#137,#122,.T.);
#162=EDGE_CURVE('',#137,#138,#79,.T.);
#163=EDGE_CURVE('',#138,#138,#123,.T.);
#164=EDGE_CURVE('',#139,#139,#124,.T.);
#165=EDGE_CURVE('',#139,#137,#80,.T.);
#166=EDGE_CURVE('',#139,#140,#81,.T.);
#167=EDGE_CURVE('',#140,#140,#125,.T.);
#168=EDGE_CURVE('',#141,#141,#126,.T.);
#169=EDGE_CURVE('',#141,#142,#82,.T.);
#170=EDGE_CURVE('',#142,#142,#127,.T.);
#171=EDGE_CURVE('',#143,#143,#128,.T.);
#172=EDGE_CURVE('',#143,#141,#83,.T.);
#173=EDGE_CURVE('',#143,#144,#84,.T.);
#174=EDGE_CURVE('',#144,#144,#129,.T.);
#175=EDGE_CURVE('',#145,#145,#130,.T.);
#176=EDGE_CURVE('',#145,#146,#85,.T.);
#177=EDGE_CURVE('',#146,#146,#131,.T.);
#178=EDGE_CURVE('',#147,#147,#132,.T.);
#179=EDGE_CURVE('',#147,#148,#86,.T.);
#180=EDGE_CURVE('',#148,#148,#133,.T.);
#181=EDGE_CURVE('',#147,#149,#134,.T.);
#182=EDGE_CURVE('',#150,#151,#87,.T.);
#183=EDGE_CURVE('',#151,#152,#88,.T.);
#184=EDGE_CURVE('',#152,#153,#89,.T.);
#185=EDGE_CURVE('',#153,#150,#90,.T.);
#186=EDGE_CURVE('',#154,#155,#91,.T.);
#187=EDGE_CURVE('',#155,#156,#92,.T.);
#188=EDGE_CURVE('',#156,#157,#93,.T.);
#189=EDGE_CURVE('',#157,#154,#94,.T.);
#190=EDGE_CURVE('',#153,#156,#95,.T.);
#191=EDGE_CURVE('',#150,#155,#96,.T.);
#192=EDGE_CURVE('',#152,#157,#97,.T.);
#193=EDGE_CURVE('',#151,#154,#98,.T.);
#194=ORIENTED_EDGE('',*,*,#158,.F.);
#195=ORIENTED_EDGE('',*,*,#159,.T.);
#196=ORIENTED_EDGE('',*,*,#160,.F.);
#197=ORIENTED_EDGE('',*,*,#159,.F.);
#198=ORIENTED_EDGE('',*,*,#161,.T.);
#199=ORIENTED_EDGE('',*,*,#162,.T.);
#200=ORIENTED_EDGE('',*,*,#163,.F.);
#201=ORIENTED_EDGE('',*,*,#162,.F.);
#202=ORIENTED_EDGE('',*,*,#164,.F.);
#203=ORIENTED_EDGE('',*,*,#165,.T.);
#204=ORIENTED_EDGE('',*,*,#161,.F.);
#205=ORIENTED_EDGE('',*,*,#165,.F.);
#206=ORIENTED_EDGE('',*,*,#164,.T.);
#207=ORIENTED_EDGE('',*,*,#166,.T.);
#208=ORIENTED_EDGE('',*,*,#167,.F.);
#209=ORIENTED_EDGE('',*,*,#166,.F.);
#210=ORIENTED_EDGE('',*,*,#168,.T.);
#211=ORIENTED_EDGE('',*,*,#169,.T.);
#212=ORIENTED_EDGE('',*,*,#170,.F.);
#213=ORIENTED_EDGE('',*,*,#169,.F.);
#214=ORIENTED_EDGE('',*,*,#171,.F.);
#215=ORIENTED_EDGE('',*,*,#172,.T.);
#216=ORIENTED_EDGE('',*,*,#168,.F.);
#217=ORIENTED_EDGE('',*,*,#172,.F.);
#218=ORIENTED_EDGE('',*,*,#171,.T.);
#219=ORIENTED_EDGE('',*,*,#173,.T.);
#220=ORIENTED_EDGE('',*,*,#174,.F.);
#221=ORIENTED_EDGE('',*,*,#173,.F.);
#222=ORIENTED_EDGE('',*,*,#175,.F.);
#223=ORIENTED_EDGE('',*,*,#176,.T.);
#224=ORIENTED_EDGE('',*,*,#177,.T.);
#225=ORIENTED_EDGE('',*,*,#176,.F.);
#226=ORIENTED_EDGE('',*,*,#178,.T.);
#227=ORIENTED_EDGE('',*,*,#179,.T.);
#228=ORIENTED_EDGE('',*,*,#180,.F.);
#229=ORIENTED_EDGE('',*,*,#179,.F.);
#230=ORIENTED_EDGE('',*,*,#178,.F.);
#231=ORIENTED_EDGE('',*,*,#181,.T.);
#232=ORIENTED_EDGE('',*,*,#181,.F.);
#233=ORIENTED_EDGE('',*,*,#177,.F.);
#234=ORIENTED_EDGE('',*,*,#158,.T.);
#235=ORIENTED_EDGE('',*,*,#182,.T.);
#236=ORIENTED_EDGE('',*,*,#183,.T.);
#237=ORIENTED_EDGE('',*,*,#184,.T.);
#238=ORIENTED_EDGE('',*,*,#185,.T.);
#239=ORIENTED_EDGE('',*,*,#175,.T.);
#240=ORIENTED_EDGE('',*,*,#186,.T.);
#241=ORIENTED_EDGE('',*,*,#187,.T.);
#242=ORIENTED_EDGE('',*,*,#188,.T.);
#243=ORIENTED_EDGE('',*,*,#189,.T.);
#244=ORIENTED_EDGE('',*,*,#180,.T.);
#245=ORIENTED_EDGE('',*,*,#190,.T.);
#246=ORIENTED_EDGE('',*,*,#187,.F.);
#247=ORIENTED_EDGE('',*,*,#191,.F.);
#248=ORIENTED_EDGE('',*,*,#185,.F.);
#249=ORIENTED_EDGE('',*,*,#160,.T.);
#250=ORIENTED_EDGE('',*,*,#192,.T.);
#251=ORIENTED_EDGE('',*,*,#188,.F.);
#252=ORIENTED_EDGE('',*,*,#190,.F.);
#253=ORIENTED_EDGE('',*,*,#184,.F.);
#254=ORIENTED_EDGE('',*,*,#170,.T.);
#255=ORIENTED_EDGE('',*,*,#163,.T.);
#256=ORIENTED_EDGE('',*,*,#193,.T.);
#257=ORIENTED_EDGE('',*,*,#189,.F.);
#258=ORIENTED_EDGE('',*,*,#192,.F.);
#259=ORIENTED_EDGE('',*,*,#183,.F.);
#260=ORIENTED_EDGE('',*,*,#191,.T.);
#261=ORIENTED_EDGE('',*,*,#186,.F.);
#262=ORIENTED_EDGE('',*,*,#193,.F.);
#263=ORIENTED_EDGE('',*,*,#182,.F.);
#264=ORIENTED_EDGE('',*,*,#174,.T.);
#265=ORIENTED_EDGE('',*,*,#167,.T.);
#266=CYLINDRICAL_SURFACE('',#312,1.3);
#267=CYLINDRICAL_SURFACE('',#318,0.6105625);
#268=CYLINDRICAL_SURFACE('',#325,0.6105625);
#269=CYLINDRICAL_SURFACE('',#329,1.3);
#270=CYLINDRICAL_SURFACE('',#332,0.5);
#271=ADVANCED_FACE('',(#35),#266,.T.);
#272=ADVANCED_FACE('',(#36),#31,.F.);
#273=ADVANCED_FACE('',(#37),#267,.F.);
#274=ADVANCED_FACE('',(#38),#32,.F.);
#275=ADVANCED_FACE('',(#39),#33,.F.);
#276=ADVANCED_FACE('',(#40),#268,.F.);
#277=ADVANCED_FACE('',(#41),#34,.F.);
#278=ADVANCED_FACE('',(#42),#269,.F.);
#279=ADVANCED_FACE('',(#43),#270,.F.);
#280=ADVANCED_FACE('',(#44),#30,.T.);
#281=ADVANCED_FACE('',(#45),#22,.F.);
#282=ADVANCED_FACE('',(#46),#23,.T.);
#283=ADVANCED_FACE('',(#47,#15),#24,.T.);
#284=ADVANCED_FACE('',(#48,#16),#25,.F.);
#285=ADVANCED_FACE('',(#49,#17),#26,.F.);
#286=ADVANCED_FACE('',(#50,#18,#19),#27,.F.);
#287=ADVANCED_FACE('',(#51),#28,.F.);
#288=ADVANCED_FACE('',(#52,#20,#21),#29,.F.);
#289=CLOSED_SHELL('',(#271,#272,#273,#274,#275,#276,#277,#278,#279,#280,
#281,#282,#283,#284,#285,#286,#287,#288));
#290=DERIVED_UNIT_ELEMENT(#293,1.);
#291=DERIVED_UNIT_ELEMENT(#517,-3.);
#292=DIMENSIONAL_EXPONENTS(0.,1.,0.,0.,0.,0.,0.);
#293=(
CONVERSION_BASED_UNIT('gram',#295)
MASS_UNIT()
NAMED_UNIT(#292)
);
#294=(
MASS_UNIT()
NAMED_UNIT(*)
SI_UNIT(.KILO.,.GRAM.)
);
#295=MASS_MEASURE_WITH_UNIT(MASS_MEASURE(0.001),#294);
#296=DERIVED_UNIT((#290,#291));
#297=MEASURE_REPRESENTATION_ITEM('density measure',
POSITIVE_RATIO_MEASURE(1.),#296);
#298=PROPERTY_DEFINITION_REPRESENTATION(#303,#300);
#299=PROPERTY_DEFINITION_REPRESENTATION(#304,#301);
#300=REPRESENTATION('material name',(#302),#514);
#301=REPRESENTATION('density',(#297),#514);
#302=DESCRIPTIVE_REPRESENTATION_ITEM('Generisch','Generisch');
#303=PROPERTY_DEFINITION('material property','material name',#524);
#304=PROPERTY_DEFINITION('material property','density of part',#524);
#305=DATE_TIME_ROLE('creation_date');
#306=APPLIED_DATE_AND_TIME_ASSIGNMENT(#307,#305,(#524));
#307=DATE_AND_TIME(#308,#309);
#308=CALENDAR_DATE(2016,4,10);
#309=LOCAL_TIME(0,0,0.,#310);
#310=COORDINATED_UNIVERSAL_TIME_OFFSET(0,0,.BEHIND.);
#311=AXIS2_PLACEMENT_3D('',#434,#345,#346);
#312=AXIS2_PLACEMENT_3D('',#435,#347,#348);
#313=AXIS2_PLACEMENT_3D('',#437,#349,#350);
#314=AXIS2_PLACEMENT_3D('',#440,#352,#353);
#315=AXIS2_PLACEMENT_3D('',#441,#354,#355);
#316=AXIS2_PLACEMENT_3D('',#443,#356,#357);
#317=AXIS2_PLACEMENT_3D('',#446,#359,#360);
#318=AXIS2_PLACEMENT_3D('',#447,#361,#362);
#319=AXIS2_PLACEMENT_3D('',#449,#363,#364);
#320=AXIS2_PLACEMENT_3D('',#451,#366,#367);
#321=AXIS2_PLACEMENT_3D('',#454,#369,#370);
#322=AXIS2_PLACEMENT_3D('',#455,#371,#372);
#323=AXIS2_PLACEMENT_3D('',#457,#373,#374);
#324=AXIS2_PLACEMENT_3D('',#460,#376,#377);
#325=AXIS2_PLACEMENT_3D('',#461,#378,#379);
#326=AXIS2_PLACEMENT_3D('',#463,#380,#381);
#327=AXIS2_PLACEMENT_3D('',#465,#383,#384);
#328=AXIS2_PLACEMENT_3D('',#468,#386,#387);
#329=AXIS2_PLACEMENT_3D('',#469,#388,#389);
#330=AXIS2_PLACEMENT_3D('',#471,#390,#391);
#331=AXIS2_PLACEMENT_3D('',#474,#393,#394);
#332=AXIS2_PLACEMENT_3D('',#475,#395,#396);
#333=AXIS2_PLACEMENT_3D('',#477,#397,#398);
#334=AXIS2_PLACEMENT_3D('',#480,#400,#401);
#335=AXIS2_PLACEMENT_3D('',#481,#402,#403);
#336=AXIS2_PLACEMENT_3D('',#483,#404,#405);
#337=AXIS2_PLACEMENT_3D('',#484,#406,#407);
#338=AXIS2_PLACEMENT_3D('',#485,#408,#409);
#339=AXIS2_PLACEMENT_3D('',#486,#410,#411);
#340=AXIS2_PLACEMENT_3D('',#495,#416,#417);
#341=AXIS2_PLACEMENT_3D('',#504,#422,#423);
#342=AXIS2_PLACEMENT_3D('',#507,#426,#427);
#343=AXIS2_PLACEMENT_3D('',#509,#429,#430);
#344=AXIS2_PLACEMENT_3D('',#511,#432,#433);
#345=DIRECTION('axis',(0.,0.,1.));
#346=DIRECTION('refdir',(1.,0.,0.));
#347=DIRECTION('center_axis',(0.,-1.,0.));
#348=DIRECTION('ref_axis',(1.,0.,0.));
#349=DIRECTION('center_axis',(0.,-1.,0.));
#350=DIRECTION('ref_axis',(1.,0.,0.));
#351=DIRECTION('',(0.,1.,0.));
#352=DIRECTION('center_axis',(0.,1.,0.));
#353=DIRECTION('ref_axis',(1.,0.,0.));
#354=DIRECTION('center_axis',(-1.,0.,0.));
#355=DIRECTION('ref_axis',(0.,1.,0.));
#356=DIRECTION('center_axis',(1.,0.,0.));
#357=DIRECTION('ref_axis',(0.,1.,0.));
#358=DIRECTION('',(-0.707106781186548,-0.707106781186547,8.65956056235493E-17));
#359=DIRECTION('center_axis',(1.,0.,0.));
#360=DIRECTION('ref_axis',(0.,1.,0.));
#361=DIRECTION('center_axis',(-1.,0.,0.));
#362=DIRECTION('ref_axis',(0.,1.,0.));
#363=DIRECTION('center_axis',(-1.,0.,0.));
#364=DIRECTION('ref_axis',(0.,1.,0.));
#365=DIRECTION('',(-1.,0.,0.));
#366=DIRECTION('center_axis',(1.,0.,1.22460635382238E-16));
#367=DIRECTION('ref_axis',(0.,1.,0.));
#368=DIRECTION('',(0.707106781186548,-0.707106781186547,-2.8599163555074E-21));
#369=DIRECTION('center_axis',(-1.,0.,0.));
#370=DIRECTION('ref_axis',(0.,1.,0.));
#371=DIRECTION('center_axis',(-1.,0.,0.));
#372=DIRECTION('ref_axis',(0.,1.,0.));
#373=DIRECTION('center_axis',(1.,0.,0.));
#374=DIRECTION('ref_axis',(0.,1.,0.));
#375=DIRECTION('',(-0.707106781186548,-0.707106781186547,8.65956056235493E-17));
#376=DIRECTION('center_axis',(1.,0.,0.));
#377=DIRECTION('ref_axis',(0.,1.,0.));
#378=DIRECTION('center_axis',(-1.,0.,0.));
#379=DIRECTION('ref_axis',(0.,1.,0.));
#380=DIRECTION('center_axis',(-1.,0.,0.));
#381=DIRECTION('ref_axis',(0.,1.,0.));
#382=DIRECTION('',(-1.,0.,0.));
#383=DIRECTION('center_axis',(1.,0.,1.22460635382238E-16));
#384=DIRECTION('ref_axis',(0.,1.,0.));
#385=DIRECTION('',(0.707106781186548,-0.707106781186547,-2.8599163555074E-21));
#386=DIRECTION('center_axis',(-1.,0.,0.));
#387=DIRECTION('ref_axis',(0.,1.,0.));
#388=DIRECTION('center_axis',(0.,0.,-1.));
#389=DIRECTION('ref_axis',(1.,0.,0.));
#390=DIRECTION('center_axis',(0.,0.,-1.));
#391=DIRECTION('ref_axis',(1.,0.,0.));
#392=DIRECTION('',(0.,0.,-1.));
#393=DIRECTION('center_axis',(0.,0.,-1.));
#394=DIRECTION('ref_axis',(1.,0.,0.));
#395=DIRECTION('center_axis',(0.,0.,-1.));
#396=DIRECTION('ref_axis',(1.,0.,0.));
#397=DIRECTION('center_axis',(0.,0.,1.));
#398=DIRECTION('ref_axis',(1.,0.,0.));
#399=DIRECTION('',(0.,0.,-1.));
#400=DIRECTION('center_axis',(0.,0.,1.));
#401=DIRECTION('ref_axis',(1.,0.,0.));
#402=DIRECTION('center_axis',(2.44925315296974E-16,0.,1.));
#403=DIRECTION('ref_axis',(1.,0.,0.));
#404=DIRECTION('center_axis',(0.,-1.,0.));
#405=DIRECTION('ref_axis',(-1.,0.,0.));
#406=DIRECTION('center_axis',(0.,0.,-1.));
#407=DIRECTION('ref_axis',(-1.,0.,0.));
#408=DIRECTION('center_axis',(0.,-1.,0.));
#409=DIRECTION('ref_axis',(-1.,0.,0.));
#410=DIRECTION('center_axis',(0.,0.,1.));
#411=DIRECTION('ref_axis',(1.,0.,0.));
#412=DIRECTION('',(0.,1.,0.));
#413=DIRECTION('',(-1.,0.,0.));
#414=DIRECTION('',(0.,-1.,0.));
#415=DIRECTION('',(1.,0.,0.));
#416=DIRECTION('center_axis',(0.,0.,1.));
#417=DIRECTION('ref_axis',(1.,0.,0.));
#418=DIRECTION('',(0.,-1.,0.));
#419=DIRECTION('',(-1.,0.,0.));
#420=DIRECTION('',(0.,1.,0.));
#421=DIRECTION('',(1.,0.,0.));
#422=DIRECTION('center_axis',(0.,1.,0.));
#423=DIRECTION('ref_axis',(0.,0.,1.));
#424=DIRECTION('',(0.,0.,-1.));
#425=DIRECTION('',(0.,0.,-1.));
#426=DIRECTION('center_axis',(1.,0.,0.));
#427=DIRECTION('ref_axis',(0.,0.,-1.));
#428=DIRECTION('',(0.,0.,-1.));
#429=DIRECTION('center_axis',(0.,-1.,0.));
#430=DIRECTION('ref_axis',(0.,0.,-1.));
#431=DIRECTION('',(0.,0.,-1.));
#432=DIRECTION('center_axis',(-1.,0.,0.));
#433=DIRECTION('ref_axis',(0.,0.,1.));
#434=CARTESIAN_POINT('',(0.,0.,0.));
#435=CARTESIAN_POINT('Origin',(0.,-35.,0.));
#436=CARTESIAN_POINT('',(-1.3,-45.,-1.59198825996909E-16));
#437=CARTESIAN_POINT('Origin',(0.,-45.,0.));
#438=CARTESIAN_POINT('',(-1.3,-25.,-1.59198825996909E-16));
#439=CARTESIAN_POINT('',(-1.3,-35.,-1.59204083889156E-16));
#440=CARTESIAN_POINT('Origin',(0.,-25.,0.));
#441=CARTESIAN_POINT('Origin',(-2.40528125,-5.5,1.));
#442=CARTESIAN_POINT('',(-2.3105625,-6.1105625,1.));
#443=CARTESIAN_POINT('Origin',(-2.3105625,-5.5,1.));
#444=CARTESIAN_POINT('',(-2.5,-6.3,1.));
#445=CARTESIAN_POINT('',(-2.40528125,-6.20528125,1.));
#446=CARTESIAN_POINT('Origin',(-2.5,-5.5,1.));
#447=CARTESIAN_POINT('Origin',(1.34471875,-5.5,1.));
#448=CARTESIAN_POINT('',(2.3105625,-6.1105625,1.));
#449=CARTESIAN_POINT('Origin',(2.3105625,-5.5,1.));
#450=CARTESIAN_POINT('',(1.34471875,-6.1105625,1.));
#451=CARTESIAN_POINT('Origin',(2.40528125,-5.5,1.));
#452=CARTESIAN_POINT('',(2.5,-6.3,1.));
#453=CARTESIAN_POINT('',(2.40528125,-6.20528125,1.));
#454=CARTESIAN_POINT('Origin',(2.5,-5.5,1.));
#455=CARTESIAN_POINT('Origin',(-2.40528125,-19.5,1.));
#456=CARTESIAN_POINT('',(-2.3105625,-20.1105625,1.));
#457=CARTESIAN_POINT('Origin',(-2.3105625,-19.5,1.));
#458=CARTESIAN_POINT('',(-2.5,-20.3,1.));
#459=CARTESIAN_POINT('',(-2.40528125,-20.20528125,1.));
#460=CARTESIAN_POINT('Origin',(-2.5,-19.5,1.));
#461=CARTESIAN_POINT('Origin',(1.34471875,-19.5,1.));
#462=CARTESIAN_POINT('',(2.3105625,-20.1105625,1.));
#463=CARTESIAN_POINT('Origin',(2.3105625,-19.5,1.));
#464=CARTESIAN_POINT('',(1.34471875,-20.1105625,1.));
#465=CARTESIAN_POINT('Origin',(2.40528125,-19.5,1.));
#466=CARTESIAN_POINT('',(2.5,-20.3,1.));
#467=CARTESIAN_POINT('',(2.40528125,-20.20528125,1.));
#468=CARTESIAN_POINT('Origin',(2.5,-19.5,1.));
#469=CARTESIAN_POINT('Origin',(0.,-3.,3.));
#470=CARTESIAN_POINT('',(-1.3,-3.,2.5));
#471=CARTESIAN_POINT('Origin',(0.,-3.,2.5));
#472=CARTESIAN_POINT('',(-1.3,-3.,2.25));
#473=CARTESIAN_POINT('',(-1.3,-3.,3.));
#474=CARTESIAN_POINT('Origin',(0.,-3.,2.25));
#475=CARTESIAN_POINT('Origin',(0.,-15.,-2.75));
#476=CARTESIAN_POINT('',(-0.5,-15.,-2.));
#477=CARTESIAN_POINT('Origin',(0.,-15.,-2.));
#478=CARTESIAN_POINT('',(-0.5,-15.,-2.5));
#479=CARTESIAN_POINT('',(-0.5,-15.,-2.75));
#480=CARTESIAN_POINT('Origin',(0.,-15.,-2.5));
#481=CARTESIAN_POINT('Origin',(0.,-15.,-2.));
#482=CARTESIAN_POINT('',(-3.06161699786838E-17,-15.,-2.5));
#483=CARTESIAN_POINT('Origin',(0.,-15.,-2.));
#484=CARTESIAN_POINT('Origin',(0.,-3.,2.25));
#485=CARTESIAN_POINT('Origin',(0.,-45.,0.));
#486=CARTESIAN_POINT('Origin',(0.,-12.5,2.5));
#487=CARTESIAN_POINT('',(2.5,-25.,2.5));
#488=CARTESIAN_POINT('',(2.5,0.,2.5));
#489=CARTESIAN_POINT('',(2.5,-12.5,2.5));
#490=CARTESIAN_POINT('',(-2.5,0.,2.5));
#491=CARTESIAN_POINT('',(0.,0.,2.5));
#492=CARTESIAN_POINT('',(-2.5,-25.,2.5));
#493=CARTESIAN_POINT('',(-2.5,-12.5,2.5));
#494=CARTESIAN_POINT('',(0.,-25.,2.5));
#495=CARTESIAN_POINT('Origin',(0.,-12.5,-2.5));
#496=CARTESIAN_POINT('',(2.5,0.,-2.5));
#497=CARTESIAN_POINT('',(2.5,-25.,-2.5));
#498=CARTESIAN_POINT('',(2.5,-12.5,-2.5));
#499=CARTESIAN_POINT('',(-2.5,-25.,-2.5));
#500=CARTESIAN_POINT('',(0.,-25.,-2.5));
#501=CARTESIAN_POINT('',(-2.5,0.,-2.5));
#502=CARTESIAN_POINT('',(-2.5,-12.5,-2.5));
#503=CARTESIAN_POINT('',(0.,0.,-2.5));
#504=CARTESIAN_POINT('Origin',(0.,-25.,0.));
#505=CARTESIAN_POINT('',(-2.5,-25.,0.));
#506=CARTESIAN_POINT('',(2.5,-25.,0.));
#507=CARTESIAN_POINT('Origin',(-2.5,-12.5,0.));
#508=CARTESIAN_POINT('',(-2.5,0.,0.));
#509=CARTESIAN_POINT('Origin',(0.,0.,0.));
#510=CARTESIAN_POINT('',(2.5,0.,0.));
#511=CARTESIAN_POINT('Origin',(2.5,-12.5,0.));
#512=UNCERTAINTY_MEASURE_WITH_UNIT(LENGTH_MEASURE(0.01),#516,
'DISTANCE_ACCURACY_VALUE',
'Maximum model space distance between geometric entities at asserted c
onnectivities');
#513=UNCERTAINTY_MEASURE_WITH_UNIT(LENGTH_MEASURE(0.01),#516,
'DISTANCE_ACCURACY_VALUE',
'Maximum model space distance between geometric entities at asserted c
onnectivities');
#514=(
GEOMETRIC_REPRESENTATION_CONTEXT(3)
GLOBAL_UNCERTAINTY_ASSIGNED_CONTEXT((#512))
GLOBAL_UNIT_ASSIGNED_CONTEXT((#516,#518,#519))
REPRESENTATION_CONTEXT('','3D')
);
#515=(
GEOMETRIC_REPRESENTATION_CONTEXT(3)
GLOBAL_UNCERTAINTY_ASSIGNED_CONTEXT((#513))
GLOBAL_UNIT_ASSIGNED_CONTEXT((#516,#518,#519))
REPRESENTATION_CONTEXT('','3D')
);
#516=(
LENGTH_UNIT()
NAMED_UNIT(*)
SI_UNIT(.MILLI.,.METRE.)
);
#517=(
LENGTH_UNIT()
NAMED_UNIT(*)
SI_UNIT(.CENTI.,.METRE.)
);
#518=(
NAMED_UNIT(*)
PLANE_ANGLE_UNIT()
SI_UNIT($,.RADIAN.)
);
#519=(
NAMED_UNIT(*)
SI_UNIT($,.STERADIAN.)
SOLID_ANGLE_UNIT()
);
#520=SHAPE_DEFINITION_REPRESENTATION(#521,#522);
#521=PRODUCT_DEFINITION_SHAPE('',$,#524);
#522=SHAPE_REPRESENTATION('',(#311),#514);
#523=PRODUCT_DEFINITION_CONTEXT('part definition',#528,'design');
#524=PRODUCT_DEFINITION('ipf_z3d_IBQ50106','ipf_z3d_IBQ50176',#525,#523);
#525=PRODUCT_DEFINITION_FORMATION('',$,#530);
#526=PRODUCT_RELATED_PRODUCT_CATEGORY('ipf_z3d_IBQ50176',
'ipf_z3d_IBQ50176',(#530));
#527=APPLICATION_PROTOCOL_DEFINITION('international standard',
'automotive_design',2009,#528);
#528=APPLICATION_CONTEXT(
'Core Data for Automotive Mechanical Design Process');
#529=PRODUCT_CONTEXT('part definition',#528,'mechanical');
#530=PRODUCT('ipf_z3d_IBQ50106','ipf_z3d_IBQ50176',$,(#529));
#531=PRESENTATION_STYLE_ASSIGNMENT((#532));
#532=SURFACE_STYLE_USAGE(.BOTH.,#535);
#533=SURFACE_STYLE_RENDERING_WITH_PROPERTIES($,#539,(#534));
#534=SURFACE_STYLE_TRANSPARENT(0.);
#535=SURFACE_SIDE_STYLE('',(#536,#533));
#536=SURFACE_STYLE_FILL_AREA(#537);
#537=FILL_AREA_STYLE('',(#538));
#538=FILL_AREA_STYLE_COLOUR('',#539);
#539=COLOUR_RGB('',0.749019607843137,0.749019607843137,0.749019607843137);
ENDSEC;
END-ISO-10303-21;
