ISO-10303-21;
HEADER;
/* Generated by software containing ST-Developer
 * from STEP Tools, Inc. (www.steptools.com) 
 */

FILE_DESCRIPTION(
/* description */ (''),
/* implementation_level */ '2;1');

FILE_NAME(
/* name */ 
'C:\\Users\\mitarbeiter\\Desktop\\3D\\Imported Components\\LT030920\\L
T030920.stp',
/* time_stamp */ '2016-10-06T13:58:23+02:00',
/* author */ ('mitarbeiter'),
/* organization */ (''),
/* preprocessor_version */ 'ST-DEVELOPER v15.2',
/* originating_system */ 'Autodesk Inventor 2014',
/* authorisation */ '');

FILE_SCHEMA (('AUTOMOTIVE_DESIGN { 1 0 10303 214 3 1 1 }'));
ENDSEC;

DATA;
#10=GEOMETRICALLY_BOUNDED_SURFACE_SHAPE_REPRESENTATION('',(#11),#607);
#11=GEOMETRIC_SET('GEOSET',(#12,#13,#14,#15,#16,#17,#18,#19,#20,#21,#22,
#23,#24,#25,#26));
#12=TRIMMED_CURVE($,#124,(#562,PARAMETER_VALUE(0.)),(#563,
PARAMETER_VALUE(1.)),.T.,.PARAMETER.);
#13=TRIMMED_CURVE($,#125,(#565,PARAMETER_VALUE(0.)),(#566,
PARAMETER_VALUE(1.)),.T.,.PARAMETER.);
#14=TRIMMED_CURVE($,#126,(#568,PARAMETER_VALUE(0.)),(#569,
PARAMETER_VALUE(1.)),.T.,.PARAMETER.);
#15=TRIMMED_CURVE($,#127,(#571,PARAMETER_VALUE(0.)),(#572,
PARAMETER_VALUE(1.)),.T.,.PARAMETER.);
#16=TRIMMED_CURVE($,#128,(#574,PARAMETER_VALUE(0.)),(#575,
PARAMETER_VALUE(1.)),.T.,.PARAMETER.);
#17=TRIMMED_CURVE($,#129,(#577,PARAMETER_VALUE(0.)),(#578,
PARAMETER_VALUE(1.)),.T.,.PARAMETER.);
#18=TRIMMED_CURVE($,#130,(#580,PARAMETER_VALUE(0.)),(#581,
PARAMETER_VALUE(1.)),.T.,.PARAMETER.);
#19=TRIMMED_CURVE($,#131,(#583,PARAMETER_VALUE(0.)),(#584,
PARAMETER_VALUE(1.)),.T.,.PARAMETER.);
#20=TRIMMED_CURVE($,#132,(#586,PARAMETER_VALUE(0.)),(#587,
PARAMETER_VALUE(1.)),.T.,.PARAMETER.);
#21=TRIMMED_CURVE($,#133,(#589,PARAMETER_VALUE(0.)),(#590,
PARAMETER_VALUE(1.)),.T.,.PARAMETER.);
#22=TRIMMED_CURVE($,#134,(#592,PARAMETER_VALUE(0.)),(#593,
PARAMETER_VALUE(1.)),.T.,.PARAMETER.);
#23=TRIMMED_CURVE($,#135,(#595,PARAMETER_VALUE(0.)),(#596,
PARAMETER_VALUE(1.)),.T.,.PARAMETER.);
#24=TRIMMED_CURVE($,#136,(#598,PARAMETER_VALUE(0.)),(#599,
PARAMETER_VALUE(1.)),.T.,.PARAMETER.);
#25=TRIMMED_CURVE($,#137,(#601,PARAMETER_VALUE(0.)),(#602,
PARAMETER_VALUE(1.)),.T.,.PARAMETER.);
#26=TRIMMED_CURVE($,#138,(#604,PARAMETER_VALUE(0.)),(#605,
PARAMETER_VALUE(1.)),.T.,.PARAMETER.);
#27=SHAPE_REPRESENTATION_RELATIONSHIP('SRR','None',#616,#29);
#28=SHAPE_REPRESENTATION_RELATIONSHIP('SRR','None',#616,#10);
#29=ADVANCED_BREP_SHAPE_REPRESENTATION($,(#352),#607);
#30=FACE_BOUND($,#76,.T.);
#31=FACE_BOUND($,#78,.T.);
#32=FACE_BOUND($,#82,.T.);
#33=FACE_BOUND($,#87,.T.);
#34=FACE_BOUND($,#91,.T.);
#35=FACE_BOUND($,#92,.T.);
#36=FACE_BOUND($,#94,.T.);
#37=FACE_BOUND($,#95,.T.);
#38=CIRCLE($,#360,1.6);
#39=CIRCLE($,#361,1.6);
#40=CIRCLE($,#363,1.6);
#41=CIRCLE($,#364,1.6);
#42=CIRCLE($,#366,4.);
#43=CIRCLE($,#368,4.);
#44=CIRCLE($,#370,4.);
#45=CIRCLE($,#371,4.);
#46=CIRCLE($,#372,4.);
#47=CYLINDRICAL_SURFACE($,#359,1.6);
#48=CYLINDRICAL_SURFACE($,#362,1.6);
#49=CYLINDRICAL_SURFACE($,#369,4.);
#50=STYLED_ITEM($,(#625),#337);
#51=STYLED_ITEM($,(#624),#352);
#52=FACE_OUTER_BOUND($,#70,.T.);
#53=FACE_OUTER_BOUND($,#71,.T.);
#54=FACE_OUTER_BOUND($,#72,.T.);
#55=FACE_OUTER_BOUND($,#73,.T.);
#56=FACE_OUTER_BOUND($,#74,.T.);
#57=FACE_OUTER_BOUND($,#75,.T.);
#58=FACE_OUTER_BOUND($,#77,.T.);
#59=FACE_OUTER_BOUND($,#79,.T.);
#60=FACE_OUTER_BOUND($,#80,.T.);
#61=FACE_OUTER_BOUND($,#81,.T.);
#62=FACE_OUTER_BOUND($,#83,.T.);
#63=FACE_OUTER_BOUND($,#84,.T.);
#64=FACE_OUTER_BOUND($,#85,.T.);
#65=FACE_OUTER_BOUND($,#86,.T.);
#66=FACE_OUTER_BOUND($,#88,.T.);
#67=FACE_OUTER_BOUND($,#89,.T.);
#68=FACE_OUTER_BOUND($,#90,.T.);
#69=FACE_OUTER_BOUND($,#93,.T.);
#70=EDGE_LOOP($,(#244,#245,#246,#247));
#71=EDGE_LOOP($,(#248,#249,#250,#251));
#72=EDGE_LOOP($,(#252,#253,#254,#255));
#73=EDGE_LOOP($,(#256,#257,#258,#259));
#74=EDGE_LOOP($,(#260,#261,#262,#263));
#75=EDGE_LOOP($,(#264));
#76=EDGE_LOOP($,(#265));
#77=EDGE_LOOP($,(#266));
#78=EDGE_LOOP($,(#267));
#79=EDGE_LOOP($,(#268,#269));
#80=EDGE_LOOP($,(#270,#271));
#81=EDGE_LOOP($,(#272));
#82=EDGE_LOOP($,(#273,#274,#275,#276));
#83=EDGE_LOOP($,(#277));
#84=EDGE_LOOP($,(#278,#279,#280,#281));
#85=EDGE_LOOP($,(#282,#283,#284,#285));
#86=EDGE_LOOP($,(#286,#287,#288,#289));
#87=EDGE_LOOP($,(#290,#291,#292,#293));
#88=EDGE_LOOP($,(#294,#295,#296,#297));
#89=EDGE_LOOP($,(#298,#299,#300,#301));
#90=EDGE_LOOP($,(#302,#303,#304,#305,#306,#307));
#91=EDGE_LOOP($,(#308));
#92=EDGE_LOOP($,(#309));
#93=EDGE_LOOP($,(#310,#311,#312,#313,#314,#315));
#94=EDGE_LOOP($,(#316));
#95=EDGE_LOOP($,(#317));
#96=LINE($,#484,#139);
#97=LINE($,#486,#140);
#98=LINE($,#488,#141);
#99=LINE($,#489,#142);
#100=LINE($,#492,#143);
#101=LINE($,#494,#144);
#102=LINE($,#495,#145);
#103=LINE($,#498,#146);
#104=LINE($,#500,#147);
#105=LINE($,#501,#148);
#106=LINE($,#503,#149);
#107=LINE($,#504,#150);
#108=LINE($,#519,#151);
#109=LINE($,#524,#152);
#110=LINE($,#534,#153);
#111=LINE($,#536,#154);
#112=LINE($,#537,#155);
#113=LINE($,#540,#156);
#114=LINE($,#542,#157);
#115=LINE($,#543,#158);
#116=LINE($,#547,#159);
#117=LINE($,#549,#160);
#118=LINE($,#551,#161);
#119=LINE($,#552,#162);
#120=LINE($,#554,#163);
#121=LINE($,#555,#164);
#122=LINE($,#557,#165);
#123=LINE($,#558,#166);
#124=LINE($,#561,#167);
#125=LINE($,#564,#168);
#126=LINE($,#567,#169);
#127=LINE($,#570,#170);
#128=LINE($,#573,#171);
#129=LINE($,#576,#172);
#130=LINE($,#579,#173);
#131=LINE($,#582,#174);
#132=LINE($,#585,#175);
#133=LINE($,#588,#176);
#134=LINE($,#591,#177);
#135=LINE($,#594,#178);
#136=LINE($,#597,#179);
#137=LINE($,#600,#180);
#138=LINE($,#603,#181);
#139=VECTOR($,#385,10.);
#140=VECTOR($,#386,0.1);
#141=VECTOR($,#387,10.);
#142=VECTOR($,#388,0.1);
#143=VECTOR($,#391,1.);
#144=VECTOR($,#392,0.1);
#145=VECTOR($,#393,1.);
#146=VECTOR($,#396,10.);
#147=VECTOR($,#397,0.1);
#148=VECTOR($,#398,10.);
#149=VECTOR($,#401,1.);
#150=VECTOR($,#402,1.);
#151=VECTOR($,#419,4.6636895265444);
#152=VECTOR($,#424,4.6636895265444);
#153=VECTOR($,#439,7.1681552367278);
#154=VECTOR($,#440,6.5);
#155=VECTOR($,#441,7.1681552367278);
#156=VECTOR($,#444,7.1681552367278);
#157=VECTOR($,#445,6.5);
#158=VECTOR($,#446,7.1681552367278);
#159=VECTOR($,#449,19.);
#160=VECTOR($,#450,6.5);
#161=VECTOR($,#451,19.);
#162=VECTOR($,#452,6.5);
#163=VECTOR($,#455,25.);
#164=VECTOR($,#456,25.);
#165=VECTOR($,#459,25.);
#166=VECTOR($,#460,25.);
#167=VECTOR($,#465,10.);
#168=VECTOR($,#466,1.);
#169=VECTOR($,#467,10.);
#170=VECTOR($,#468,1.);
#171=VECTOR($,#469,19.);
#172=VECTOR($,#470,6.5);
#173=VECTOR($,#471,19.);
#174=VECTOR($,#472,6.5);
#175=VECTOR($,#473,10.);
#176=VECTOR($,#474,25.);
#177=VECTOR($,#475,19.);
#178=VECTOR($,#476,25.);
#179=VECTOR($,#477,7.1681552367278);
#180=VECTOR($,#478,4.6636895265444);
#181=VECTOR($,#479,7.1681552367278);
#182=VERTEX_POINT($,#482);
#183=VERTEX_POINT($,#483);
#184=VERTEX_POINT($,#485);
#185=VERTEX_POINT($,#487);
#186=VERTEX_POINT($,#491);
#187=VERTEX_POINT($,#493);
#188=VERTEX_POINT($,#497);
#189=VERTEX_POINT($,#499);
#190=VERTEX_POINT($,#507);
#191=VERTEX_POINT($,#509);
#192=VERTEX_POINT($,#512);
#193=VERTEX_POINT($,#514);
#194=VERTEX_POINT($,#517);
#195=VERTEX_POINT($,#518);
#196=VERTEX_POINT($,#522);
#197=VERTEX_POINT($,#523);
#198=VERTEX_POINT($,#527);
#199=VERTEX_POINT($,#533);
#200=VERTEX_POINT($,#535);
#201=VERTEX_POINT($,#539);
#202=VERTEX_POINT($,#541);
#203=VERTEX_POINT($,#545);
#204=VERTEX_POINT($,#546);
#205=VERTEX_POINT($,#548);
#206=VERTEX_POINT($,#550);
#207=EDGE_CURVE($,#182,#183,#96,.T.);
#208=EDGE_CURVE($,#182,#184,#97,.T.);
#209=EDGE_CURVE($,#184,#185,#98,.T.);
#210=EDGE_CURVE($,#183,#185,#99,.T.);
#211=EDGE_CURVE($,#186,#182,#100,.T.);
#212=EDGE_CURVE($,#186,#187,#101,.T.);
#213=EDGE_CURVE($,#187,#184,#102,.T.);
#214=EDGE_CURVE($,#188,#186,#103,.T.);
#215=EDGE_CURVE($,#188,#189,#104,.T.);
#216=EDGE_CURVE($,#189,#187,#105,.T.);
#217=EDGE_CURVE($,#183,#188,#106,.T.);
#218=EDGE_CURVE($,#185,#189,#107,.T.);
#219=EDGE_CURVE($,#190,#190,#38,.T.);
#220=EDGE_CURVE($,#191,#191,#39,.T.);
#221=EDGE_CURVE($,#192,#192,#40,.T.);
#222=EDGE_CURVE($,#193,#193,#41,.T.);
#223=EDGE_CURVE($,#194,#195,#108,.T.);
#224=EDGE_CURVE($,#195,#194,#42,.T.);
#225=EDGE_CURVE($,#196,#197,#109,.T.);
#226=EDGE_CURVE($,#196,#197,#43,.T.);
#227=EDGE_CURVE($,#198,#198,#44,.T.);
#228=EDGE_CURVE($,#194,#196,#45,.T.);
#229=EDGE_CURVE($,#197,#195,#46,.T.);
#230=EDGE_CURVE($,#199,#196,#110,.T.);
#231=EDGE_CURVE($,#200,#199,#111,.T.);
#232=EDGE_CURVE($,#200,#194,#112,.T.);
#233=EDGE_CURVE($,#195,#201,#113,.T.);
#234=EDGE_CURVE($,#201,#202,#114,.T.);
#235=EDGE_CURVE($,#197,#202,#115,.T.);
#236=EDGE_CURVE($,#203,#204,#116,.T.);
#237=EDGE_CURVE($,#204,#205,#117,.T.);
#238=EDGE_CURVE($,#206,#205,#118,.T.);
#239=EDGE_CURVE($,#203,#206,#119,.T.);
#240=EDGE_CURVE($,#201,#203,#120,.T.);
#241=EDGE_CURVE($,#202,#206,#121,.T.);
#242=EDGE_CURVE($,#204,#200,#122,.T.);
#243=EDGE_CURVE($,#205,#199,#123,.T.);
#244=ORIENTED_EDGE($,*,*,#207,.F.);
#245=ORIENTED_EDGE($,*,*,#208,.T.);
#246=ORIENTED_EDGE($,*,*,#209,.T.);
#247=ORIENTED_EDGE($,*,*,#210,.F.);
#248=ORIENTED_EDGE($,*,*,#211,.F.);
#249=ORIENTED_EDGE($,*,*,#212,.T.);
#250=ORIENTED_EDGE($,*,*,#213,.T.);
#251=ORIENTED_EDGE($,*,*,#208,.F.);
#252=ORIENTED_EDGE($,*,*,#214,.F.);
#253=ORIENTED_EDGE($,*,*,#215,.T.);
#254=ORIENTED_EDGE($,*,*,#216,.T.);
#255=ORIENTED_EDGE($,*,*,#212,.F.);
#256=ORIENTED_EDGE($,*,*,#217,.F.);
#257=ORIENTED_EDGE($,*,*,#210,.T.);
#258=ORIENTED_EDGE($,*,*,#218,.T.);
#259=ORIENTED_EDGE($,*,*,#215,.F.);
#260=ORIENTED_EDGE($,*,*,#218,.F.);
#261=ORIENTED_EDGE($,*,*,#209,.F.);
#262=ORIENTED_EDGE($,*,*,#213,.F.);
#263=ORIENTED_EDGE($,*,*,#216,.F.);
#264=ORIENTED_EDGE($,*,*,#219,.F.);
#265=ORIENTED_EDGE($,*,*,#220,.F.);
#266=ORIENTED_EDGE($,*,*,#221,.F.);
#267=ORIENTED_EDGE($,*,*,#222,.F.);
#268=ORIENTED_EDGE($,*,*,#223,.T.);
#269=ORIENTED_EDGE($,*,*,#224,.T.);
#270=ORIENTED_EDGE($,*,*,#225,.F.);
#271=ORIENTED_EDGE($,*,*,#226,.T.);
#272=ORIENTED_EDGE($,*,*,#227,.F.);
#273=ORIENTED_EDGE($,*,*,#226,.F.);
#274=ORIENTED_EDGE($,*,*,#228,.F.);
#275=ORIENTED_EDGE($,*,*,#224,.F.);
#276=ORIENTED_EDGE($,*,*,#229,.F.);
#277=ORIENTED_EDGE($,*,*,#227,.T.);
#278=ORIENTED_EDGE($,*,*,#228,.T.);
#279=ORIENTED_EDGE($,*,*,#230,.F.);
#280=ORIENTED_EDGE($,*,*,#231,.F.);
#281=ORIENTED_EDGE($,*,*,#232,.T.);
#282=ORIENTED_EDGE($,*,*,#229,.T.);
#283=ORIENTED_EDGE($,*,*,#233,.T.);
#284=ORIENTED_EDGE($,*,*,#234,.T.);
#285=ORIENTED_EDGE($,*,*,#235,.F.);
#286=ORIENTED_EDGE($,*,*,#236,.T.);
#287=ORIENTED_EDGE($,*,*,#237,.T.);
#288=ORIENTED_EDGE($,*,*,#238,.F.);
#289=ORIENTED_EDGE($,*,*,#239,.F.);
#290=ORIENTED_EDGE($,*,*,#207,.T.);
#291=ORIENTED_EDGE($,*,*,#217,.T.);
#292=ORIENTED_EDGE($,*,*,#214,.T.);
#293=ORIENTED_EDGE($,*,*,#211,.T.);
#294=ORIENTED_EDGE($,*,*,#240,.T.);
#295=ORIENTED_EDGE($,*,*,#239,.T.);
#296=ORIENTED_EDGE($,*,*,#241,.F.);
#297=ORIENTED_EDGE($,*,*,#234,.F.);
#298=ORIENTED_EDGE($,*,*,#242,.T.);
#299=ORIENTED_EDGE($,*,*,#231,.T.);
#300=ORIENTED_EDGE($,*,*,#243,.F.);
#301=ORIENTED_EDGE($,*,*,#237,.F.);
#302=ORIENTED_EDGE($,*,*,#243,.T.);
#303=ORIENTED_EDGE($,*,*,#230,.T.);
#304=ORIENTED_EDGE($,*,*,#225,.T.);
#305=ORIENTED_EDGE($,*,*,#235,.T.);
#306=ORIENTED_EDGE($,*,*,#241,.T.);
#307=ORIENTED_EDGE($,*,*,#238,.T.);
#308=ORIENTED_EDGE($,*,*,#219,.T.);
#309=ORIENTED_EDGE($,*,*,#221,.T.);
#310=ORIENTED_EDGE($,*,*,#242,.F.);
#311=ORIENTED_EDGE($,*,*,#236,.F.);
#312=ORIENTED_EDGE($,*,*,#240,.F.);
#313=ORIENTED_EDGE($,*,*,#233,.F.);
#314=ORIENTED_EDGE($,*,*,#223,.F.);
#315=ORIENTED_EDGE($,*,*,#232,.F.);
#316=ORIENTED_EDGE($,*,*,#220,.T.);
#317=ORIENTED_EDGE($,*,*,#222,.T.);
#318=PLANE($,#354);
#319=PLANE($,#355);
#320=PLANE($,#356);
#321=PLANE($,#357);
#322=PLANE($,#358);
#323=PLANE($,#365);
#324=PLANE($,#367);
#325=PLANE($,#373);
#326=PLANE($,#374);
#327=PLANE($,#375);
#328=PLANE($,#376);
#329=PLANE($,#377);
#330=PLANE($,#378);
#331=PLANE($,#379);
#332=PLANE($,#380);
#333=ADVANCED_FACE($,(#52),#318,.F.);
#334=ADVANCED_FACE($,(#53),#319,.F.);
#335=ADVANCED_FACE($,(#54),#320,.F.);
#336=ADVANCED_FACE($,(#55),#321,.F.);
#337=ADVANCED_FACE($,(#56),#322,.T.);
#338=ADVANCED_FACE($,(#57,#30),#47,.F.);
#339=ADVANCED_FACE($,(#58,#31),#48,.F.);
#340=ADVANCED_FACE($,(#59),#323,.T.);
#341=ADVANCED_FACE($,(#60),#324,.T.);
#342=ADVANCED_FACE($,(#61,#32),#49,.T.);
#343=ADVANCED_FACE($,(#62),#325,.F.);
#344=ADVANCED_FACE($,(#63),#326,.T.);
#345=ADVANCED_FACE($,(#64),#327,.T.);
#346=ADVANCED_FACE($,(#65,#33),#328,.T.);
#347=ADVANCED_FACE($,(#66),#329,.T.);
#348=ADVANCED_FACE($,(#67),#330,.T.);
#349=ADVANCED_FACE($,(#68,#34,#35),#331,.T.);
#350=ADVANCED_FACE($,(#69,#36,#37),#332,.F.);
#351=CLOSED_SHELL($,(#333,#334,#335,#336,#337,#338,#339,#340,#341,#342,
#343,#344,#345,#346,#347,#348,#349,#350));
#352=MANIFOLD_SOLID_BREP('Volumenk\X\F6rper1',#351);
#353=AXIS2_PLACEMENT_3D('placement',#480,#381,#382);
#354=AXIS2_PLACEMENT_3D($,#481,#383,#384);
#355=AXIS2_PLACEMENT_3D($,#490,#389,#390);
#356=AXIS2_PLACEMENT_3D($,#496,#394,#395);
#357=AXIS2_PLACEMENT_3D($,#502,#399,#400);
#358=AXIS2_PLACEMENT_3D($,#505,#403,#404);
#359=AXIS2_PLACEMENT_3D($,#506,#405,#406);
#360=AXIS2_PLACEMENT_3D($,#508,#407,#408);
#361=AXIS2_PLACEMENT_3D($,#510,#409,#410);
#362=AXIS2_PLACEMENT_3D($,#511,#411,#412);
#363=AXIS2_PLACEMENT_3D($,#513,#413,#414);
#364=AXIS2_PLACEMENT_3D($,#515,#415,#416);
#365=AXIS2_PLACEMENT_3D($,#516,#417,#418);
#366=AXIS2_PLACEMENT_3D($,#520,#420,#421);
#367=AXIS2_PLACEMENT_3D($,#521,#422,#423);
#368=AXIS2_PLACEMENT_3D($,#525,#425,#426);
#369=AXIS2_PLACEMENT_3D($,#526,#427,#428);
#370=AXIS2_PLACEMENT_3D($,#528,#429,#430);
#371=AXIS2_PLACEMENT_3D($,#529,#431,#432);
#372=AXIS2_PLACEMENT_3D($,#530,#433,#434);
#373=AXIS2_PLACEMENT_3D($,#531,#435,#436);
#374=AXIS2_PLACEMENT_3D($,#532,#437,#438);
#375=AXIS2_PLACEMENT_3D($,#538,#442,#443);
#376=AXIS2_PLACEMENT_3D($,#544,#447,#448);
#377=AXIS2_PLACEMENT_3D($,#553,#453,#454);
#378=AXIS2_PLACEMENT_3D($,#556,#457,#458);
#379=AXIS2_PLACEMENT_3D($,#559,#461,#462);
#380=AXIS2_PLACEMENT_3D($,#560,#463,#464);
#381=DIRECTION('axis',(0.,0.,1.));
#382=DIRECTION('refdir',(1.,0.,0.));
#383=DIRECTION('center_axis',(-1.,0.,-1.66533453693774E-016));
#384=DIRECTION('ref_axis',(0.,-3.50596744618471E-016,1.));
#385=DIRECTION($,(-1.66533453693774E-016,-3.50596744618471E-016,1.));
#386=DIRECTION($,(0.,1.,0.));
#387=DIRECTION($,(-1.66533453693774E-016,-3.50596744618471E-016,1.));
#388=DIRECTION($,(0.,1.,0.));
#389=DIRECTION('center_axis',(0.,0.,-1.));
#390=DIRECTION('ref_axis',(-1.,0.,0.));
#391=DIRECTION($,(-1.,0.,0.));
#392=DIRECTION($,(0.,1.,0.));
#393=DIRECTION($,(-1.,0.,0.));
#394=DIRECTION('center_axis',(1.,0.,2.22044604925031E-016));
#395=DIRECTION('ref_axis',(0.,3.50596744618471E-016,-1.));
#396=DIRECTION($,(2.22044604925031E-016,3.50596744618471E-016,-1.));
#397=DIRECTION($,(0.,1.,0.));
#398=DIRECTION($,(2.22044604925031E-016,3.50596744618471E-016,-1.));
#399=DIRECTION('center_axis',(0.,0.,1.));
#400=DIRECTION('ref_axis',(1.,0.,0.));
#401=DIRECTION($,(1.,0.,0.));
#402=DIRECTION($,(1.,0.,0.));
#403=DIRECTION('center_axis',(7.13292149922161E-017,-1.,-3.54179445235076E-016));
#404=DIRECTION('ref_axis',(0.,3.60822483003176E-016,-1.));
#405=DIRECTION('center_axis',(-1.,0.,0.));
#406=DIRECTION('ref_axis',(0.,0.,1.));
#407=DIRECTION('center_axis',(-1.,0.,0.));
#408=DIRECTION('ref_axis',(0.,0.,1.));
#409=DIRECTION('center_axis',(1.,0.,0.));
#410=DIRECTION('ref_axis',(0.,0.,1.));
#411=DIRECTION('center_axis',(-1.,0.,0.));
#412=DIRECTION('ref_axis',(0.,0.,1.));
#413=DIRECTION('center_axis',(-1.,0.,0.));
#414=DIRECTION('ref_axis',(0.,0.,1.));
#415=DIRECTION('center_axis',(1.,0.,0.));
#416=DIRECTION('ref_axis',(0.,0.,1.));
#417=DIRECTION('center_axis',(0.,-1.,-4.67462326157961E-016));
#418=DIRECTION('ref_axis',(0.,0.,-1.));
#419=DIRECTION($,(0.,-4.67462326157961E-016,1.));
#420=DIRECTION('center_axis',(0.,-1.,-4.67462326157961E-016));
#421=DIRECTION('ref_axis',(-1.,0.,0.));
#422=DIRECTION('center_axis',(0.,-1.,-4.67462326157961E-016));
#423=DIRECTION('ref_axis',(0.,0.,-1.));
#424=DIRECTION($,(0.,-4.67462326157961E-016,1.));
#425=DIRECTION('center_axis',(0.,-1.,-4.67462326157961E-016));
#426=DIRECTION('ref_axis',(-1.,0.,0.));
#427=DIRECTION('center_axis',(0.,1.,4.44089209850063E-016));
#428=DIRECTION('ref_axis',(-1.,0.,0.));
#429=DIRECTION('center_axis',(0.,1.,4.67462326157961E-016));
#430=DIRECTION('ref_axis',(-1.,0.,0.));
#431=DIRECTION('center_axis',(0.,-1.,-4.67462326157961E-016));
#432=DIRECTION('ref_axis',(-1.,0.,0.));
#433=DIRECTION('center_axis',(0.,-1.,-4.67462326157961E-016));
#434=DIRECTION('ref_axis',(-1.,0.,0.));
#435=DIRECTION('center_axis',(0.,-1.,-4.67462326157961E-016));
#436=DIRECTION('ref_axis',(0.,0.,-1.));
#437=DIRECTION('center_axis',(0.,1.,4.67462326157961E-016));
#438=DIRECTION('ref_axis',(0.,0.,1.));
#439=DIRECTION($,(0.,-4.67462326157961E-016,1.));
#440=DIRECTION($,(1.,0.,0.));
#441=DIRECTION($,(0.,-4.67462326157961E-016,1.));
#442=DIRECTION('center_axis',(0.,1.,4.67462326157961E-016));
#443=DIRECTION('ref_axis',(0.,0.,1.));
#444=DIRECTION($,(0.,-4.67462326157961E-016,1.));
#445=DIRECTION($,(1.,0.,0.));
#446=DIRECTION($,(0.,-4.67462326157961E-016,1.));
#447=DIRECTION('center_axis',(0.,-1.,-3.50596744618471E-016));
#448=DIRECTION('ref_axis',(0.,3.50596744618471E-016,-1.));
#449=DIRECTION($,(0.,3.50596744618471E-016,-1.));
#450=DIRECTION($,(1.,0.,0.));
#451=DIRECTION($,(0.,3.50596744618471E-016,-1.));
#452=DIRECTION($,(1.,0.,0.));
#453=DIRECTION('center_axis',(0.,-1.77635683940025E-016,1.));
#454=DIRECTION('ref_axis',(0.,-1.,0.));
#455=DIRECTION($,(0.,-1.,-1.77635683940025E-016));
#456=DIRECTION($,(0.,-1.,-1.77635683940025E-016));
#457=DIRECTION('center_axis',(0.,0.,-1.));
#458=DIRECTION('ref_axis',(0.,1.,0.));
#459=DIRECTION($,(0.,1.,0.));
#460=DIRECTION($,(0.,1.,0.));
#461=DIRECTION('center_axis',(1.,0.,0.));
#462=DIRECTION('ref_axis',(0.,0.,-1.));
#463=DIRECTION('center_axis',(1.,0.,0.));
#464=DIRECTION('ref_axis',(0.,0.,-1.));
#465=DIRECTION($,(0.,-3.5059674461847E-016,1.));
#466=DIRECTION($,(1.,0.,0.));
#467=DIRECTION($,(0.,3.5059674461847E-016,-1.));
#468=DIRECTION($,(-1.,0.,0.));
#469=DIRECTION($,(0.,3.50596744618471E-016,-1.));
#470=DIRECTION($,(1.,0.,0.));
#471=DIRECTION($,(0.,3.50596744618471E-016,-1.));
#472=DIRECTION($,(1.,0.,0.));
#473=DIRECTION($,(0.,3.5059674461847E-016,-1.));
#474=DIRECTION($,(0.,1.,0.));
#475=DIRECTION($,(0.,3.50596744618471E-016,-1.));
#476=DIRECTION($,(0.,-1.,0.));
#477=DIRECTION($,(0.,0.,1.));
#478=DIRECTION($,(0.,0.,1.));
#479=DIRECTION($,(0.,0.,1.));
#480=CARTESIAN_POINT('',(0.,0.,0.));
#481=CARTESIAN_POINT('Origin',(3.5,-1.57768535078312E-015,4.5));
#482=CARTESIAN_POINT('',(3.5,-1.57768535078312E-015,4.5));
#483=CARTESIAN_POINT('',(3.5,-5.08365279696782E-015,14.5));
#484=CARTESIAN_POINT($,(3.5,-4.11951174926703E-015,11.75));
#485=CARTESIAN_POINT('',(3.5,0.0999999999999984,4.5));
#486=CARTESIAN_POINT($,(3.5,-1.57768535078312E-015,4.5));
#487=CARTESIAN_POINT('',(3.5,0.0999999999999949,14.5));
#488=CARTESIAN_POINT($,(3.5,0.0999999999999984,4.5));
#489=CARTESIAN_POINT($,(3.5,-5.08365279696782E-015,14.5));
#490=CARTESIAN_POINT('Origin',(4.5,-1.57768535078312E-015,4.5));
#491=CARTESIAN_POINT('',(4.5,-1.57768535078312E-015,4.5));
#492=CARTESIAN_POINT($,(2.25,-1.57768535078312E-015,4.5));
#493=CARTESIAN_POINT('',(4.5,0.0999999999999984,4.5));
#494=CARTESIAN_POINT($,(4.5,-1.57768535078312E-015,4.5));
#495=CARTESIAN_POINT($,(4.5,0.0999999999999984,4.5));
#496=CARTESIAN_POINT('Origin',(4.5,-5.08365279696782E-015,14.5));
#497=CARTESIAN_POINT('',(4.5,-5.08365279696782E-015,14.5));
#498=CARTESIAN_POINT($,(4.5,-5.87249547235938E-015,16.75));
#499=CARTESIAN_POINT('',(4.5,0.0999999999999949,14.5));
#500=CARTESIAN_POINT($,(4.5,-5.08365279696782E-015,14.5));
#501=CARTESIAN_POINT($,(4.5,0.0999999999999949,14.5));
#502=CARTESIAN_POINT('Origin',(3.5,-5.08365279696782E-015,14.5));
#503=CARTESIAN_POINT($,(1.75,-5.08365279696782E-015,14.5));
#504=CARTESIAN_POINT($,(3.5,0.0999999999999949,14.5));
#505=CARTESIAN_POINT('Origin',(4.,0.0999999999999967,9.5));
#506=CARTESIAN_POINT('Origin',(4.,20.,15.75));
#507=CARTESIAN_POINT('',(6.5,20.,14.15));
#508=CARTESIAN_POINT('Origin',(6.5,20.,15.75));
#509=CARTESIAN_POINT('',(0.,20.,17.35));
#510=CARTESIAN_POINT('Origin',(0.,20.,15.75));
#511=CARTESIAN_POINT('Origin',(4.,20.,3.25));
#512=CARTESIAN_POINT('',(6.5,20.,1.65));
#513=CARTESIAN_POINT('Origin',(6.5,20.,3.25));
#514=CARTESIAN_POINT('',(0.,20.,4.85));
#515=CARTESIAN_POINT('Origin',(0.,20.,3.25));
#516=CARTESIAN_POINT('Origin',(3.25,25.,9.5));
#517=CARTESIAN_POINT('',(0.,25.,7.1681552367278));
#518=CARTESIAN_POINT('',(0.,25.,11.8318447632722));
#519=CARTESIAN_POINT($,(0.,25.,0.));
#520=CARTESIAN_POINT('Origin',(3.25,25.,9.5));
#521=CARTESIAN_POINT('Origin',(3.25,25.,9.5));
#522=CARTESIAN_POINT('',(6.5,25.,7.1681552367278));
#523=CARTESIAN_POINT('',(6.5,25.,11.8318447632722));
#524=CARTESIAN_POINT($,(6.5,25.,0.));
#525=CARTESIAN_POINT('Origin',(3.25,25.,9.5));
#526=CARTESIAN_POINT('Origin',(3.25,25.,9.5));
#527=CARTESIAN_POINT('',(7.25,40.,9.50000000000001));
#528=CARTESIAN_POINT('Origin',(3.25,40.,9.50000000000001));
#529=CARTESIAN_POINT('Origin',(3.25,25.,9.5));
#530=CARTESIAN_POINT('Origin',(3.25,25.,9.5));
#531=CARTESIAN_POINT('Origin',(3.25,40.,9.50000000000001));
#532=CARTESIAN_POINT('Origin',(0.,25.,0.));
#533=CARTESIAN_POINT('',(6.5,25.,0.));
#534=CARTESIAN_POINT($,(6.5,25.,0.));
#535=CARTESIAN_POINT('',(0.,25.,0.));
#536=CARTESIAN_POINT($,(0.,25.,0.));
#537=CARTESIAN_POINT($,(0.,25.,0.));
#538=CARTESIAN_POINT('Origin',(0.,25.,0.));
#539=CARTESIAN_POINT('',(0.,25.,19.));
#540=CARTESIAN_POINT($,(0.,25.,0.));
#541=CARTESIAN_POINT('',(6.5,25.,19.));
#542=CARTESIAN_POINT($,(0.,25.,19.));
#543=CARTESIAN_POINT($,(6.5,25.,0.));
#544=CARTESIAN_POINT('Origin',(0.,-6.66133814775094E-015,19.));
#545=CARTESIAN_POINT('',(0.,-6.66133814775094E-015,19.));
#546=CARTESIAN_POINT('',(0.,0.,0.));
#547=CARTESIAN_POINT($,(0.,-6.66133814775094E-015,19.));
#548=CARTESIAN_POINT('',(6.5,0.,0.));
#549=CARTESIAN_POINT($,(0.,0.,0.));
#550=CARTESIAN_POINT('',(6.5,-6.66133814775094E-015,19.));
#551=CARTESIAN_POINT($,(6.5,-6.66133814775094E-015,19.));
#552=CARTESIAN_POINT($,(0.,-6.66133814775094E-015,19.));
#553=CARTESIAN_POINT('Origin',(0.,25.,19.));
#554=CARTESIAN_POINT($,(0.,25.,19.));
#555=CARTESIAN_POINT($,(6.5,25.,19.));
#556=CARTESIAN_POINT('Origin',(0.,0.,0.));
#557=CARTESIAN_POINT($,(0.,0.,0.));
#558=CARTESIAN_POINT($,(6.5,0.,0.));
#559=CARTESIAN_POINT('Origin',(6.5,12.5,9.5));
#560=CARTESIAN_POINT('Origin',(0.,12.5,9.5));
#561=CARTESIAN_POINT($,(3.5,-1.57768535078312E-015,4.5));
#562=CARTESIAN_POINT('',(3.5,-1.57768535078312E-015,4.5));
#563=CARTESIAN_POINT('',(3.5,-5.08365279696782E-015,14.5));
#564=CARTESIAN_POINT($,(3.5,-5.08365279696782E-015,14.5));
#565=CARTESIAN_POINT('',(3.5,-5.08365279696782E-015,14.5));
#566=CARTESIAN_POINT('',(4.5,-5.08365279696782E-015,14.5));
#567=CARTESIAN_POINT($,(4.5,-5.08365279696782E-015,14.5));
#568=CARTESIAN_POINT('',(4.5,-5.08365279696782E-015,14.5));
#569=CARTESIAN_POINT('',(4.5,-1.57768535078312E-015,4.5));
#570=CARTESIAN_POINT($,(4.5,-1.57768535078312E-015,4.5));
#571=CARTESIAN_POINT('',(4.5,-1.57768535078312E-015,4.5));
#572=CARTESIAN_POINT('',(3.5,-1.57768535078312E-015,4.5));
#573=CARTESIAN_POINT($,(0.,-6.66133814775094E-015,19.));
#574=CARTESIAN_POINT('',(0.,-6.66133814775094E-015,19.));
#575=CARTESIAN_POINT('',(0.,0.,0.));
#576=CARTESIAN_POINT($,(0.,9.86076131526265E-031,3.45715081659083E-046));
#577=CARTESIAN_POINT('',(0.,9.86076131526265E-031,3.45715081659083E-046));
#578=CARTESIAN_POINT('',(6.5,9.86076131526265E-031,3.45715081659083E-046));
#579=CARTESIAN_POINT($,(6.5,-6.66133814775094E-015,19.));
#580=CARTESIAN_POINT('',(6.5,-6.66133814775094E-015,19.));
#581=CARTESIAN_POINT('',(6.5,0.,0.));
#582=CARTESIAN_POINT($,(0.,-6.66133814775094E-015,19.));
#583=CARTESIAN_POINT('',(0.,-6.66133814775094E-015,19.));
#584=CARTESIAN_POINT('',(6.5,-6.66133814775094E-015,19.));
#585=CARTESIAN_POINT($,(4.,-5.08365279696782E-015,14.5));
#586=CARTESIAN_POINT('',(4.,-5.08365279696782E-015,14.5));
#587=CARTESIAN_POINT('',(4.,-1.57768535078312E-015,4.5));
#588=CARTESIAN_POINT($,(0.,0.,0.));
#589=CARTESIAN_POINT('',(0.,0.,0.));
#590=CARTESIAN_POINT('',(0.,25.,0.));
#591=CARTESIAN_POINT($,(0.,-6.66133814775094E-015,19.));
#592=CARTESIAN_POINT('',(0.,-6.66133814775094E-015,19.));
#593=CARTESIAN_POINT('',(0.,0.,0.));
#594=CARTESIAN_POINT($,(0.,25.,19.));
#595=CARTESIAN_POINT('',(0.,25.,19.));
#596=CARTESIAN_POINT('',(0.,-7.105427357601E-015,19.));
#597=CARTESIAN_POINT($,(0.,25.,11.8318447632722));
#598=CARTESIAN_POINT('',(0.,25.,11.8318447632722));
#599=CARTESIAN_POINT('',(0.,25.,19.));
#600=CARTESIAN_POINT($,(0.,25.,7.1681552367278));
#601=CARTESIAN_POINT('',(0.,25.,7.1681552367278));
#602=CARTESIAN_POINT('',(0.,25.,11.8318447632722));
#603=CARTESIAN_POINT($,(0.,25.,0.));
#604=CARTESIAN_POINT('',(0.,25.,0.));
#605=CARTESIAN_POINT('',(0.,25.,7.1681552367278));
#606=UNCERTAINTY_MEASURE_WITH_UNIT(LENGTH_MEASURE(0.01),#608,
'DISTANCE_ACCURACY_VALUE',
'Maximum model space distance between geometric entities at asserted c
onnectivities');
#607=(
GEOMETRIC_REPRESENTATION_CONTEXT(3)
GLOBAL_UNCERTAINTY_ASSIGNED_CONTEXT((#606))
GLOBAL_UNIT_ASSIGNED_CONTEXT((#608,#611,#609))
REPRESENTATION_CONTEXT('','3D')
);
#608=(
LENGTH_UNIT()
NAMED_UNIT(*)
SI_UNIT(.MILLI.,.METRE.)
);
#609=(
NAMED_UNIT(*)
SI_UNIT($,.STERADIAN.)
SOLID_ANGLE_UNIT()
);
#610=DIMENSIONAL_EXPONENTS(0.,0.,0.,0.,0.,0.,0.);
#611=(
CONVERSION_BASED_UNIT('degree',#613)
NAMED_UNIT(#610)
PLANE_ANGLE_UNIT()
);
#612=(
NAMED_UNIT(*)
PLANE_ANGLE_UNIT()
SI_UNIT($,.RADIAN.)
);
#613=PLANE_ANGLE_MEASURE_WITH_UNIT(PLANE_ANGLE_MEASURE(0.01745329252),#612);
#614=SHAPE_DEFINITION_REPRESENTATION(#615,#616);
#615=PRODUCT_DEFINITION_SHAPE('',$,#618);
#616=SHAPE_REPRESENTATION('',(#353),#607);
#617=PRODUCT_DEFINITION_CONTEXT('3D Mechanical Parts',#621,'design');
#618=PRODUCT_DEFINITION('LT030920','LT030920',#619,#617);
#619=PRODUCT_DEFINITION_FORMATION('',$,#623);
#620=APPLICATION_PROTOCOL_DEFINITION('international standard',
'automotive_design',2009,#621);
#621=APPLICATION_CONTEXT(
'Core Data for Automotive Mechanical Design Process');
#622=PRODUCT_CONTEXT('3D Mechanical Parts',#621,'mechanical');
#623=PRODUCT('LT030920','LT030920',$,(#622));
#624=PRESENTATION_STYLE_ASSIGNMENT((#626));
#625=PRESENTATION_STYLE_ASSIGNMENT((#627));
#626=SURFACE_STYLE_USAGE(.BOTH.,#628);
#627=SURFACE_STYLE_USAGE(.BOTH.,#629);
#628=SURFACE_SIDE_STYLE($,(#630));
#629=SURFACE_SIDE_STYLE($,(#631));
#630=SURFACE_STYLE_FILL_AREA(#632);
#631=SURFACE_STYLE_FILL_AREA(#633);
#632=FILL_AREA_STYLE($,(#634));
#633=FILL_AREA_STYLE($,(#635));
#634=FILL_AREA_STYLE_COLOUR($,#636);
#635=FILL_AREA_STYLE_COLOUR($,#637);
#636=COLOUR_RGB('',0.749019607843137,0.749019607843137,0.749019607843137);
#637=COLOUR_RGB('',0.925490196078431,0.945098039215686,0.937254901960784);
ENDSEC;
END-ISO-10303-21;
