ISO-10303-21;
HEADER;
/* Generated by software containing ST-Developer
 * from STEP Tools, Inc. (www.steptools.com) 
 */

FILE_DESCRIPTION(
/* description */ (''),
/* implementation_level */ '2;1');

FILE_NAME(
/* name */ 
'C:\\Users\\mitarbeiter\\Desktop\\3D\\Imported Components\\LS208050\\L
S208050.stp',
/* time_stamp */ '2016-10-06T13:47:11+02:00',
/* author */ ('mitarbeiter'),
/* organization */ (''),
/* preprocessor_version */ 'ST-DEVELOPER v15.2',
/* originating_system */ 'Autodesk Inventor 2014',
/* authorisation */ '');

FILE_SCHEMA (('AUTOMOTIVE_DESIGN { 1 0 10303 214 3 1 1 }'));
ENDSEC;

DATA;
#10=ITEM_DEFINED_TRANSFORMATION($,$,#123,#144);
#11=(
REPRESENTATION_RELATIONSHIP($,$,#232,#233)
REPRESENTATION_RELATIONSHIP_WITH_TRANSFORMATION(#10)
SHAPE_REPRESENTATION_RELATIONSHIP()
);
#12=CONTEXT_DEPENDENT_SHAPE_REPRESENTATION(#11,#231);
#13=NEXT_ASSEMBLY_USAGE_OCCURRENCE('1',$,$,#236,#235,$);
#14=DIMENSIONAL_EXPONENTS(0.,0.,0.,0.,0.,0.,0.);
#15=(
CONVERSION_BASED_UNIT('degree',#16)
NAMED_UNIT(#14)
PLANE_ANGLE_UNIT()
);
#16=PLANE_ANGLE_MEASURE_WITH_UNIT(PLANE_ANGLE_MEASURE(0.01745329252),#226);
#17=SHAPE_REPRESENTATION_RELATIONSHIP('SRR','None',#232,#18);
#18=ADVANCED_BREP_SHAPE_REPRESENTATION($,(#122),#222);
#19=STYLED_ITEM($,(#244),#122);
#20=PLANE($,#139);
#21=PLANE($,#140);
#22=PLANE($,#141);
#23=PLANE($,#142);
#24=CYLINDRICAL_SURFACE($,#127,2.);
#25=CYLINDRICAL_SURFACE($,#134,1.3);
#26=CYLINDRICAL_SURFACE($,#136,1.1);
#27=FACE_BOUND($,#46,.T.);
#28=FACE_BOUND($,#48,.T.);
#29=FACE_BOUND($,#50,.T.);
#30=FACE_BOUND($,#52,.T.);
#31=FACE_BOUND($,#54,.T.);
#32=FACE_BOUND($,#56,.T.);
#33=FACE_BOUND($,#60,.T.);
#34=FACE_BOUND($,#62,.T.);
#35=FACE_OUTER_BOUND($,#45,.T.);
#36=FACE_OUTER_BOUND($,#47,.T.);
#37=FACE_OUTER_BOUND($,#49,.T.);
#38=FACE_OUTER_BOUND($,#51,.T.);
#39=FACE_OUTER_BOUND($,#53,.T.);
#40=FACE_OUTER_BOUND($,#55,.T.);
#41=FACE_OUTER_BOUND($,#57,.T.);
#42=FACE_OUTER_BOUND($,#58,.T.);
#43=FACE_OUTER_BOUND($,#59,.T.);
#44=FACE_OUTER_BOUND($,#61,.T.);
#45=EDGE_LOOP($,(#90));
#46=EDGE_LOOP($,(#91));
#47=EDGE_LOOP($,(#92));
#48=EDGE_LOOP($,(#93));
#49=EDGE_LOOP($,(#94));
#50=EDGE_LOOP($,(#95));
#51=EDGE_LOOP($,(#96));
#52=EDGE_LOOP($,(#97));
#53=EDGE_LOOP($,(#98));
#54=EDGE_LOOP($,(#99));
#55=EDGE_LOOP($,(#100));
#56=EDGE_LOOP($,(#101));
#57=EDGE_LOOP($,(#102));
#58=EDGE_LOOP($,(#103));
#59=EDGE_LOOP($,(#104));
#60=EDGE_LOOP($,(#105));
#61=EDGE_LOOP($,(#106));
#62=EDGE_LOOP($,(#107));
#63=CIRCLE($,#125,1.7);
#64=CIRCLE($,#126,2.);
#65=CIRCLE($,#128,2.);
#66=CIRCLE($,#130,1.7);
#67=CIRCLE($,#132,1.075);
#68=CIRCLE($,#133,1.3);
#69=CIRCLE($,#135,1.3);
#70=CIRCLE($,#137,1.1);
#71=CIRCLE($,#138,1.1);
#72=VERTEX_POINT($,#191);
#73=VERTEX_POINT($,#193);
#74=VERTEX_POINT($,#196);
#75=VERTEX_POINT($,#199);
#76=VERTEX_POINT($,#202);
#77=VERTEX_POINT($,#204);
#78=VERTEX_POINT($,#207);
#79=VERTEX_POINT($,#210);
#80=VERTEX_POINT($,#212);
#81=EDGE_CURVE($,#72,#72,#63,.T.);
#82=EDGE_CURVE($,#73,#73,#64,.T.);
#83=EDGE_CURVE($,#74,#74,#65,.T.);
#84=EDGE_CURVE($,#75,#75,#66,.T.);
#85=EDGE_CURVE($,#76,#76,#67,.T.);
#86=EDGE_CURVE($,#77,#77,#68,.T.);
#87=EDGE_CURVE($,#78,#78,#69,.T.);
#88=EDGE_CURVE($,#79,#79,#70,.T.);
#89=EDGE_CURVE($,#80,#80,#71,.T.);
#90=ORIENTED_EDGE($,*,*,#81,.F.);
#91=ORIENTED_EDGE($,*,*,#82,.T.);
#92=ORIENTED_EDGE($,*,*,#82,.F.);
#93=ORIENTED_EDGE($,*,*,#83,.F.);
#94=ORIENTED_EDGE($,*,*,#84,.F.);
#95=ORIENTED_EDGE($,*,*,#83,.T.);
#96=ORIENTED_EDGE($,*,*,#85,.F.);
#97=ORIENTED_EDGE($,*,*,#86,.T.);
#98=ORIENTED_EDGE($,*,*,#86,.F.);
#99=ORIENTED_EDGE($,*,*,#87,.F.);
#100=ORIENTED_EDGE($,*,*,#88,.F.);
#101=ORIENTED_EDGE($,*,*,#89,.F.);
#102=ORIENTED_EDGE($,*,*,#88,.T.);
#103=ORIENTED_EDGE($,*,*,#85,.T.);
#104=ORIENTED_EDGE($,*,*,#84,.T.);
#105=ORIENTED_EDGE($,*,*,#87,.T.);
#106=ORIENTED_EDGE($,*,*,#81,.T.);
#107=ORIENTED_EDGE($,*,*,#89,.T.);
#108=CONICAL_SURFACE($,#124,1.85,0.463647609000806);
#109=CONICAL_SURFACE($,#129,1.85,0.463647609000806);
#110=CONICAL_SURFACE($,#131,1.1875,0.463647609000806);
#111=ADVANCED_FACE($,(#35,#27),#108,.T.);
#112=ADVANCED_FACE($,(#36,#28),#24,.T.);
#113=ADVANCED_FACE($,(#37,#29),#109,.T.);
#114=ADVANCED_FACE($,(#38,#30),#110,.T.);
#115=ADVANCED_FACE($,(#39,#31),#25,.T.);
#116=ADVANCED_FACE($,(#40,#32),#26,.T.);
#117=ADVANCED_FACE($,(#41),#20,.T.);
#118=ADVANCED_FACE($,(#42),#21,.T.);
#119=ADVANCED_FACE($,(#43,#33),#22,.T.);
#120=ADVANCED_FACE($,(#44,#34),#23,.T.);
#121=CLOSED_SHELL($,(#111,#112,#113,#114,#115,#116,#117,#118,#119,#120));
#122=MANIFOLD_SOLID_BREP('1',#121);
#123=AXIS2_PLACEMENT_3D('placement',#189,#145,#146);
#124=AXIS2_PLACEMENT_3D($,#190,#147,#148);
#125=AXIS2_PLACEMENT_3D($,#192,#149,#150);
#126=AXIS2_PLACEMENT_3D($,#194,#151,#152);
#127=AXIS2_PLACEMENT_3D($,#195,#153,#154);
#128=AXIS2_PLACEMENT_3D($,#197,#155,#156);
#129=AXIS2_PLACEMENT_3D($,#198,#157,#158);
#130=AXIS2_PLACEMENT_3D($,#200,#159,#160);
#131=AXIS2_PLACEMENT_3D($,#201,#161,#162);
#132=AXIS2_PLACEMENT_3D($,#203,#163,#164);
#133=AXIS2_PLACEMENT_3D($,#205,#165,#166);
#134=AXIS2_PLACEMENT_3D($,#206,#167,#168);
#135=AXIS2_PLACEMENT_3D($,#208,#169,#170);
#136=AXIS2_PLACEMENT_3D($,#209,#171,#172);
#137=AXIS2_PLACEMENT_3D($,#211,#173,#174);
#138=AXIS2_PLACEMENT_3D($,#213,#175,#176);
#139=AXIS2_PLACEMENT_3D($,#214,#177,#178);
#140=AXIS2_PLACEMENT_3D($,#215,#179,#180);
#141=AXIS2_PLACEMENT_3D($,#216,#181,#182);
#142=AXIS2_PLACEMENT_3D($,#217,#183,#184);
#143=AXIS2_PLACEMENT_3D('placement',#218,#185,#186);
#144=AXIS2_PLACEMENT_3D($,#219,#187,#188);
#145=DIRECTION('axis',(0.,0.,1.));
#146=DIRECTION('refdir',(1.,0.,0.));
#147=DIRECTION('center_axis',(-1.,0.,0.));
#148=DIRECTION('ref_axis',(0.,1.,0.));
#149=DIRECTION('center_axis',(1.,0.,0.));
#150=DIRECTION('ref_axis',(0.,1.,0.));
#151=DIRECTION('center_axis',(1.,0.,0.));
#152=DIRECTION('ref_axis',(0.,1.,0.));
#153=DIRECTION('center_axis',(-1.,0.,0.));
#154=DIRECTION('ref_axis',(0.,1.,0.));
#155=DIRECTION('center_axis',(-1.,0.,-1.22460635382238E-016));
#156=DIRECTION('ref_axis',(0.,1.,0.));
#157=DIRECTION('center_axis',(1.,0.,1.22460635382238E-016));
#158=DIRECTION('ref_axis',(0.,1.,0.));
#159=DIRECTION('center_axis',(-1.,0.,-1.22460635382238E-016));
#160=DIRECTION('ref_axis',(0.,1.,0.));
#161=DIRECTION('center_axis',(1.,0.,1.22460635382238E-016));
#162=DIRECTION('ref_axis',(0.,1.,0.));
#163=DIRECTION('center_axis',(-1.,0.,-1.22460635382238E-016));
#164=DIRECTION('ref_axis',(0.,1.,0.));
#165=DIRECTION('center_axis',(-1.,0.,-1.22460635382238E-016));
#166=DIRECTION('ref_axis',(0.,1.,0.));
#167=DIRECTION('center_axis',(1.,0.,1.22460635382238E-016));
#168=DIRECTION('ref_axis',(0.,1.,0.));
#169=DIRECTION('center_axis',(1.,1.95921710227969E-016,1.22460635382238E-016));
#170=DIRECTION('ref_axis',(-1.95921710227969E-016,1.,-2.39926971196917E-032));
#171=DIRECTION('center_axis',(-1.,0.,0.));
#172=DIRECTION('ref_axis',(0.,0.,-1.));
#173=DIRECTION('center_axis',(1.,0.,0.));
#174=DIRECTION('ref_axis',(0.,0.,-1.));
#175=DIRECTION('center_axis',(-1.,1.95921710227969E-016,0.));
#176=DIRECTION('ref_axis',(0.,0.,-1.));
#177=DIRECTION('center_axis',(1.,0.,0.));
#178=DIRECTION('ref_axis',(0.,0.,-1.));
#179=DIRECTION('center_axis',(-1.,1.54914840645371E-016,-1.22460635382238E-016));
#180=DIRECTION('ref_axis',(0.,1.,0.));
#181=DIRECTION('center_axis',(-1.,-1.95921710227969E-016,-1.22460635382238E-016));
#182=DIRECTION('ref_axis',(-1.95921710227969E-016,1.,0.));
#183=DIRECTION('center_axis',(1.,-1.95921710227969E-016,0.));
#184=DIRECTION('ref_axis',(0.,1.,0.));
#185=DIRECTION('axis',(0.,0.,1.));
#186=DIRECTION('refdir',(1.,0.,0.));
#187=DIRECTION($,(0.,0.,1.));
#188=DIRECTION($,(1.,0.,0.));
#189=CARTESIAN_POINT('',(0.,0.,0.));
#190=CARTESIAN_POINT('Origin',(10.7,0.,0.));
#191=CARTESIAN_POINT('',(11.,-1.7,2.08183080149804E-016));
#192=CARTESIAN_POINT('Origin',(11.,0.,0.));
#193=CARTESIAN_POINT('',(10.4,-2.,2.44921270764475E-016));
#194=CARTESIAN_POINT('Origin',(10.4,0.,0.));
#195=CARTESIAN_POINT('Origin',(7.95,0.,0.));
#196=CARTESIAN_POINT('',(0.6,-2.,-8.4497838413744E-016));
#197=CARTESIAN_POINT('Origin',(0.6,0.,-6.00057113372965E-016));
#198=CARTESIAN_POINT('Origin',(0.3,0.,-6.36795303987636E-016));
#199=CARTESIAN_POINT('',(2.54942322709763E-032,-1.7,-8.81716574752111E-016));
#200=CARTESIAN_POINT('Origin',(0.,0.,-6.73533494602307E-016));
#201=CARTESIAN_POINT('Origin',(-2.775,0.,-3.3982826318571E-016));
#202=CARTESIAN_POINT('',(-3.,-1.075,-4.99027089182619E-016));
#203=CARTESIAN_POINT('Origin',(-3.,0.,-3.67381906146713E-016));
#204=CARTESIAN_POINT('',(-2.55,-1.3,-4.71473446221615E-016));
#205=CARTESIAN_POINT('Origin',(-2.55,0.,-3.12274620224706E-016));
#206=CARTESIAN_POINT('Origin',(-1.275,0.,-1.56137310112353E-016));
#207=CARTESIAN_POINT('',(2.54698223296359E-016,-1.3,-1.59198825996909E-016));
#208=CARTESIAN_POINT('Origin',(0.,0.,0.));
#209=CARTESIAN_POINT('Origin',(55.5,0.,0.));
#210=CARTESIAN_POINT('',(100.,1.34706698920462E-016,1.1));
#211=CARTESIAN_POINT('Origin',(100.,0.,0.));
#212=CARTESIAN_POINT('',(11.,1.34706698920462E-016,1.1));
#213=CARTESIAN_POINT('Origin',(11.,0.,0.));
#214=CARTESIAN_POINT('Origin',(100.,0.,0.));
#215=CARTESIAN_POINT('Origin',(-3.,0.5375,-3.67381906146713E-016));
#216=CARTESIAN_POINT('Origin',(0.,0.85,-6.73533494602307E-016));
#217=CARTESIAN_POINT('Origin',(11.,0.85,0.));
#218=CARTESIAN_POINT('',(0.,0.,0.));
#219=CARTESIAN_POINT($,(0.,0.,0.));
#220=UNCERTAINTY_MEASURE_WITH_UNIT(LENGTH_MEASURE(0.01),#224,
'DISTANCE_ACCURACY_VALUE',
'Maximum model space distance between geometric entities at asserted c
onnectivities');
#221=UNCERTAINTY_MEASURE_WITH_UNIT(LENGTH_MEASURE(0.01),#224,
'DISTANCE_ACCURACY_VALUE',
'Maximum model space distance between geometric entities at asserted c
onnectivities');
#222=(
GEOMETRIC_REPRESENTATION_CONTEXT(3)
GLOBAL_UNCERTAINTY_ASSIGNED_CONTEXT((#220))
GLOBAL_UNIT_ASSIGNED_CONTEXT((#224,#226,#225))
REPRESENTATION_CONTEXT('','3D')
);
#223=(
GEOMETRIC_REPRESENTATION_CONTEXT(3)
GLOBAL_UNCERTAINTY_ASSIGNED_CONTEXT((#221))
GLOBAL_UNIT_ASSIGNED_CONTEXT((#224,#15,#225))
REPRESENTATION_CONTEXT('','3D')
);
#224=(
LENGTH_UNIT()
NAMED_UNIT(*)
SI_UNIT(.MILLI.,.METRE.)
);
#225=(
NAMED_UNIT(*)
SI_UNIT($,.STERADIAN.)
SOLID_ANGLE_UNIT()
);
#226=(
NAMED_UNIT(*)
PLANE_ANGLE_UNIT()
SI_UNIT($,.RADIAN.)
);
#227=SHAPE_DEFINITION_REPRESENTATION(#229,#232);
#228=SHAPE_DEFINITION_REPRESENTATION(#230,#233);
#229=PRODUCT_DEFINITION_SHAPE('',$,#235);
#230=PRODUCT_DEFINITION_SHAPE('',$,#236);
#231=PRODUCT_DEFINITION_SHAPE($,$,#13);
#232=SHAPE_REPRESENTATION('',(#123),#222);
#233=SHAPE_REPRESENTATION('',(#143,#144),#223);
#234=PRODUCT_DEFINITION_CONTEXT('3D Mechanical Parts',#240,'design');
#235=PRODUCT_DEFINITION('1','1',#237,#234);
#236=PRODUCT_DEFINITION('LS208050','LS208050',#238,#234);
#237=PRODUCT_DEFINITION_FORMATION('',$,#242);
#238=PRODUCT_DEFINITION_FORMATION('',$,#243);
#239=APPLICATION_PROTOCOL_DEFINITION('international standard',
'automotive_design',2009,#240);
#240=APPLICATION_CONTEXT(
'Core Data for Automotive Mechanical Design Process');
#241=PRODUCT_CONTEXT('3D Mechanical Parts',#240,'mechanical');
#242=PRODUCT('1','1',$,(#241));
#243=PRODUCT('LS208050','LS208050',$,(#241));
#244=PRESENTATION_STYLE_ASSIGNMENT((#245));
#245=SURFACE_STYLE_USAGE(.BOTH.,#246);
#246=SURFACE_SIDE_STYLE($,(#247));
#247=SURFACE_STYLE_FILL_AREA(#248);
#248=FILL_AREA_STYLE($,(#249));
#249=FILL_AREA_STYLE_COLOUR($,#250);
#250=COLOUR_RGB('',0.749019607843137,0.749019607843137,0.749019607843137);
ENDSEC;
END-ISO-10303-21;
